  0
SECTION
  2
HEADER
  9
$ACADVER
  1
AC1027
  9
$ACADMAINTVER
 70
   125
  9
$DWGCODEPAGE
  3
ANSI_1252
  9
$LASTSAVEDBY
  1
yatishkale
  9
$REQUIREDVERSIONS
160
                 0
  9
$INSBASE
 10
0.0
 20
0.0
 30
0.0
  9
$EXTMIN
 10
10.084847
 20
142.185542
 30
0.0
  9
$EXTMAX
 10
42.804243
 20
288.998817
 30
0.0
  9
$LIMMIN
 10
0.0
 20
0.0
  9
$LIMMAX
 10
210.0
 20
297.0
  9
$ORTHOMODE
 70
     0
  9
$REGENMODE
 70
     1
  9
$FILLMODE
 70
     1
  9
$QTEXTMODE
 70
     0
  9
$MIRRTEXT
 70
     0
  9
$LTSCALE
 40
0.75
  9
$ATTMODE
 70
     1
  9
$TEXTSIZE
 40
3.5
  9
$TRACEWID
 40
1.0
  9
$TEXTSTYLE
  7
Standard
  9
$CLAYER
  8
0
  9
$CELTYPE
  6
ByLayer
  9
$CECOLOR
 62
   256
  9
$CELTSCALE
 40
1.0
  9
$DISPSILH
 70
     0
  9
$DIMSCALE
 40
1.0
  9
$DIMASZ
 40
3.5
  9
$DIMEXO
 40
2.1
  9
$DIMDLI
 40
10.5
  9
$DIMRND
 40
0.0
  9
$DIMDLE
 40
0.0
  9
$DIMEXE
 40
2.1
  9
$DIMTP
 40
0.1
  9
$DIMTM
 40
0.1
  9
$DIMTXT
 40
3.5
  9
$DIMCEN
 40
0.0
  9
$DIMTSZ
 40
0.0
  9
$DIMTOL
 70
     0
  9
$DIMLIM
 70
     0
  9
$DIMTIH
 70
     0
  9
$DIMTOH
 70
     0
  9
$DIMSE1
 70
     0
  9
$DIMSE2
 70
     0
  9
$DIMTAD
 70
     1
  9
$DIMZIN
 70
    12
  9
$DIMBLK
  1

  9
$DIMASO
 70
     1
  9
$DIMSHO
 70
     1
  9
$DIMPOST
  1

  9
$DIMAPOST
  1

  9
$DIMALT
 70
     0
  9
$DIMALTD
 70
     2
  9
$DIMALTF
 40
0.03937
  9
$DIMLFAC
 40
1.0
  9
$DIMTOFL
 70
     1
  9
$DIMTVP
 40
0.0
  9
$DIMTIX
 70
     0
  9
$DIMSOXD
 70
     0
  9
$DIMSAH
 70
     0
  9
$DIMBLK1
  1

  9
$DIMBLK2
  1

  9
$DIMSTYLE
  2
Dim-ISO-25
  9
$DIMCLRD
 70
     0
  9
$DIMCLRE
 70
     0
  9
$DIMCLRT
 70
     0
  9
$DIMTFAC
 40
0.714286
  9
$DIMGAP
 40
1.4
  9
$DIMJUST
 70
     0
  9
$DIMSD1
 70
     0
  9
$DIMSD2
 70
     0
  9
$DIMTOLJ
 70
     0
  9
$DIMTZIN
 70
    12
  9
$DIMALTZ
 70
    12
  9
$DIMALTTZ
 70
    12
  9
$DIMUPT
 70
     0
  9
$DIMDEC
 70
     2
  9
$DIMTDEC
 70
     2
  9
$DIMALTU
 70
     2
  9
$DIMALTTD
 70
     4
  9
$DIMTXSTY
  7
Standard
  9
$DIMAUNIT
 70
     0
  9
$DIMADEC
 70
     2
  9
$DIMALTRND
 40
0.0
  9
$DIMAZIN
 70
     3
  9
$DIMDSEP
 70
    46
  9
$DIMATFIT
 70
     3
  9
$DIMFRAC
 70
     0
  9
$DIMLDRBLK
  1

  9
$DIMLUNIT
 70
     2
  9
$DIMLWD
 70
    -2
  9
$DIMLWE
 70
    -2
  9
$DIMTMOVE
 70
     0
  9
$DIMFXL
 40
1.0
  9
$DIMFXLON
 70
     0
  9
$DIMJOGANG
 40
0.785398
  9
$DIMTFILL
 70
     0
  9
$DIMTFILLCLR
 70
     0
  9
$DIMARCSYM
 70
     0
  9
$DIMLTYPE
  6

  9
$DIMLTEX1
  6

  9
$DIMLTEX2
  6

  9
$DIMTXTDIRECTION
 70
     0
  9
$LUNITS
 70
     2
  9
$LUPREC
 70
     4
  9
$SKETCHINC
 40
1.0
  9
$FILLETRAD
 40
0.0
  9
$AUNITS
 70
     0
  9
$AUPREC
 70
     0
  9
$MENU
  1
.
  9
$ELEVATION
 40
0.0
  9
$PELEVATION
 40
0.0
  9
$THICKNESS
 40
0.0
  9
$LIMCHECK
 70
     0
  9
$CHAMFERA
 40
0.0
  9
$CHAMFERB
 40
0.0
  9
$CHAMFERC
 40
0.0
  9
$CHAMFERD
 40
0.0
  9
$SKPOLY
 70
     0
  9
$TDCREATE
 40
2460156.819942130
  9
$TDUCREATE
 40
2460156.736608796
  9
$TDUPDATE
 40
2460156.819942130
  9
$TDUUPDATE
 40
2460156.736608796
  9
$TDINDWG
 40
0.0000000000
  9
$TDUSRTIMER
 40
0.0000000000
  9
$USRTIMER
 70
     1
  9
$ANGBASE
 50
0.0
  9
$ANGDIR
 70
     0
  9
$PDMODE
 70
     0
  9
$PDSIZE
 40
0.0
  9
$PLINEWID
 40
0.0
  9
$SPLFRAME
 70
     0
  9
$SPLINETYPE
 70
     6
  9
$SPLINESEGS
 70
     8
  9
$HANDSEED
  5
3C5
  9
$SURFTAB1
 70
     6
  9
$SURFTAB2
 70
     6
  9
$SURFTYPE
 70
     6
  9
$SURFU
 70
     6
  9
$SURFV
 70
     6
  9
$UCSBASE
  2

  9
$UCSNAME
  2

  9
$UCSORG
 10
0.0
 20
0.0
 30
0.0
  9
$UCSXDIR
 10
1.0
 20
0.0
 30
0.0
  9
$UCSYDIR
 10
0.0
 20
1.0
 30
0.0
  9
$UCSORTHOREF
  2

  9
$UCSORTHOVIEW
 70
     0
  9
$UCSORGTOP
 10
0.0
 20
0.0
 30
0.0
  9
$UCSORGBOTTOM
 10
0.0
 20
0.0
 30
0.0
  9
$UCSORGLEFT
 10
0.0
 20
0.0
 30
0.0
  9
$UCSORGRIGHT
 10
0.0
 20
0.0
 30
0.0
  9
$UCSORGFRONT
 10
0.0
 20
0.0
 30
0.0
  9
$UCSORGBACK
 10
0.0
 20
0.0
 30
0.0
  9
$PUCSBASE
  2

  9
$PUCSNAME
  2

  9
$PUCSORG
 10
0.0
 20
0.0
 30
0.0
  9
$PUCSXDIR
 10
1.0
 20
0.0
 30
0.0
  9
$PUCSYDIR
 10
0.0
 20
1.0
 30
0.0
  9
$PUCSORTHOREF
  2

  9
$PUCSORTHOVIEW
 70
     0
  9
$PUCSORGTOP
 10
0.0
 20
0.0
 30
0.0
  9
$PUCSORGBOTTOM
 10
0.0
 20
0.0
 30
0.0
  9
$PUCSORGLEFT
 10
0.0
 20
0.0
 30
0.0
  9
$PUCSORGRIGHT
 10
0.0
 20
0.0
 30
0.0
  9
$PUCSORGFRONT
 10
0.0
 20
0.0
 30
0.0
  9
$PUCSORGBACK
 10
0.0
 20
0.0
 30
0.0
  9
$USERI1
 70
     0
  9
$USERI2
 70
     0
  9
$USERI3
 70
     0
  9
$USERI4
 70
     0
  9
$USERI5
 70
     0
  9
$USERR1
 40
0.0
  9
$USERR2
 40
0.0
  9
$USERR3
 40
0.0
  9
$USERR4
 40
0.0
  9
$USERR5
 40
0.0
  9
$WORLDVIEW
 70
     1
  9
$SHADEDGE
 70
     3
  9
$SHADEDIF
 70
    70
  9
$TILEMODE
 70
     1
  9
$MAXACTVP
 70
    64
  9
$PINSBASE
 10
0.0
 20
0.0
 30
0.0
  9
$PLIMCHECK
 70
     0
  9
$PEXTMIN
 10
1.000000E+20
 20
1.000000E+20
 30
1.000000E+20
  9
$PEXTMAX
 10
-1.000000E+20
 20
-1.000000E+20
 30
-1.000000E+20
  9
$PLIMMIN
 10
0.0
 20
0.0
  9
$PLIMMAX
 10
12.0
 20
9.0
  9
$UNITMODE
 70
     0
  9
$VISRETAIN
 70
     1
  9
$PLINEGEN
 70
     0
  9
$PSLTSCALE
 70
     1
  9
$TREEDEPTH
 70
  3020
  9
$CMLSTYLE
  2
Standard
  9
$CMLJUST
 70
     0
  9
$CMLSCALE
 40
20.0
  9
$PROXYGRAPHICS
 70
     1
  9
$MEASUREMENT
 70
     1
  9
$CELWEIGHT
370
    -1
  9
$ENDCAPS
280
     0
  9
$JOINSTYLE
280
     0
  9
$LWDISPLAY
290
     0
  9
$INSUNITS
 70
     4
  9
$HYPERLINKBASE
  1

  9
$STYLESHEET
  1

  9
$XEDIT
290
     1
  9
$CEPSNTYPE
380
     0
  9
$PSTYLEMODE
290
     1
  9
$FINGERPRINTGUID
  2
{9C7443CA-5310-144E-9F69-63AB57A2D41B}
  9
$VERSIONGUID
  2
{12DF3624-EA7F-5B4A-ADF2-4FFD3C98D92E}
  9
$EXTNAMES
290
     1
  9
$PSVPSCALE
 40
0.0
  9
$OLESTARTUP
290
     0
  9
$SORTENTS
280
   127
  9
$INDEXCTL
280
     0
  9
$HIDETEXT
280
     1
  9
$XCLIPFRAME
280
     0
  9
$HALOGAP
280
     0
  9
$OBSCOLOR
 70
   257
  9
$OBSLTYPE
280
     0
  9
$INTERSECTIONDISPLAY
280
     0
  9
$INTERSECTIONCOLOR
 70
   257
  9
$DIMASSOC
280
     2
  9
$PROJECTNAME
  1

  9
$CAMERADISPLAY
290
     0
  9
$LENSLENGTH
 40
50.0
  9
$CAMERAHEIGHT
 40
0.0
  9
$STEPSPERSEC
 40
2.0
  9
$STEPSIZE
 40
6.0
  9
$3DDWFPREC
 40
2.0
  9
$PSOLWIDTH
 40
5.0
  9
$PSOLHEIGHT
 40
80.0
  9
$LOFTANG1
 40
1.570796
  9
$LOFTANG2
 40
1.570796
  9
$LOFTMAG1
 40
0.0
  9
$LOFTMAG2
 40
0.0
  9
$LOFTPARAM
 70
     7
  9
$LOFTNORMALS
280
     1
  9
$LATITUDE
 40
37.795
  9
$LONGITUDE
 40
-122.394
  9
$NORTHDIRECTION
 40
0.0
  9
$TIMEZONE
 70
 -8000
  9
$LIGHTGLYPHDISPLAY
280
     1
  9
$TILEMODELIGHTSYNCH
280
     1
  9
$CMATERIAL
347
11
  9
$SOLIDHIST
280
     0
  9
$SHOWHIST
280
     1
  9
$DWFFRAME
280
     2
  9
$DGNFRAME
280
     0
  9
$REALWORLDSCALE
290
     1
  9
$INTERFERECOLOR
 62
     1
  9
$INTERFEREOBJVS
345
33
  9
$INTERFEREVPVS
346
30
  9
$CSHADOW
280
     0
  9
$SHADOWPLANELOCATION
 40
0.0
  0
ENDSEC
  0
SECTION
  2
CLASSES
  0
CLASS
  1
ACDBDICTIONARYWDFLT
  2
AcDbDictionaryWithDefault
  3
ObjectDBX Classes
 90
        0
 91
        1
280
     0
281
     0
  0
CLASS
  1
MATERIAL
  2
AcDbMaterial
  3
ObjectDBX Classes
 90
     1153
 91
        3
280
     0
281
     0
  0
CLASS
  1
VISUALSTYLE
  2
AcDbVisualStyle
  3
ObjectDBX Classes
 90
     4095
 91
       24
280
     0
281
     0
  0
CLASS
  1
SCALE
  2
AcDbScale
  3
ObjectDBX Classes
 90
     1153
 91
       17
280
     0
281
     0
  0
CLASS
  1
TABLESTYLE
  2
AcDbTableStyle
  3
ObjectDBX Classes
 90
     4095
 91
        1
280
     0
281
     0
  0
CLASS
  1
MLEADERSTYLE
  2
AcDbMLeaderStyle
  3
ACDB_MLEADERSTYLE_CLASS
 90
     4095
 91
        1
280
     0
281
     0
  0
CLASS
  1
ACDBSECTIONVIEWSTYLE
  2
AcDbSectionViewStyle
  3
ObjectDBX Classes
 90
     1025
 91
        1
280
     0
281
     0
  0
CLASS
  1
ACDBDETAILVIEWSTYLE
  2
AcDbDetailViewStyle
  3
ObjectDBX Classes
 90
     1025
 91
        1
280
     0
281
     0
  0
CLASS
  1
ACMESCOPE
  2
AcMeScope
  3
AcMeServices
 90
     1024
 91
        1
280
     0
281
     0
  0
CLASS
  1
ACMECOMMANDHISTORY
  2
AcMeCommandHistory
  3
AcMeServices
 90
     1024
 91
        1
280
     0
281
     0
  0
CLASS
  1
ACIMSYSVARMAN
  2
AcImSysVarManager
  3
AcMeServices
 90
     1024
 91
        1
280
     0
281
     0
  0
CLASS
  1
ACIMINTSYSVAR
  2
AcImIntSysVar
  3
AcMeServices
 90
     1024
 91
        1
280
     0
281
     0
  0
CLASS
  1
ACMESTATEMGR
  2
AcMeStateMgr
  3
AcMeServices
 90
     1024
 91
        1
280
     0
281
     0
  0
CLASS
  1
ACGREFMASTER
  2
AcGrefMaster
  3
AcAttribServices
 90
     1024
 91
        1
280
     0
281
     0
  0
CLASS
  1
SORTENTSTABLE
  2
AcDbSortentsTable
  3
ObjectDBX Classes
 90
        0
 91
        1
280
     0
281
     0
  0
CLASS
  1
DICTIONARYVAR
  2
AcDbDictionaryVar
  3
ObjectDBX Classes
 90
        0
 91
        6
280
     0
281
     0
  0
CLASS
  1
CELLSTYLEMAP
  2
AcDbCellStyleMap
  3
ObjectDBX Classes
 90
     1152
 91
        1
280
     0
281
     0
  0
ENDSEC
  0
SECTION
  2
TABLES
  0
TABLE
  2
VPORT
  5
8
330
0
100
AcDbSymbolTable
 70
     1
1001
ACAD
1000
DbSaveVer
1071
      298
  0
VPORT
  5
57
330
8
100
AcDbSymbolTableRecord
100
AcDbViewportTableRecord
  2
*Active
 70
     0
 10
0.0
 20
0.0
 11
1.0
 21
1.0
 12
26.444545
 22
215.592179
 13
0.0
 23
0.0
 14
0.5
 24
0.5
 15
0.0
 25
0.0
 16
0.0
 26
0.0
 36
1.0
 17
0.0
 27
0.0
 37
0.0
 40
146.813275
 41
2.852405
 42
50.0
 43
0.0
 44
0.0
 50
0.0
 51
0.0
 71
     0
 72
 20000
 73
     1
 74
     0
 75
     0
 76
     0
 77
     0
 78
     0
281
     0
 65
     1
110
0.0
120
0.0
130
0.0
111
1.0
121
0.0
131
0.0
112
0.0
122
1.0
132
0.0
 79
     0
146
0.0
348
2F
 60
     3
 61
     5
292
     1
282
     1
141
0.0
142
0.0
 63
   250
421
  3355443
  0
ENDTAB
  0
TABLE
  2
LTYPE
  5
5
330
0
100
AcDbSymbolTable
 70
    14
  0
LTYPE
  5
5B
330
5
100
AcDbSymbolTableRecord
100
AcDbLinetypeTableRecord
  2
ByBlock
 70
     0
  3

 72
    65
 73
     0
 40
0.0
  0
LTYPE
  5
5C
330
5
100
AcDbSymbolTableRecord
100
AcDbLinetypeTableRecord
  2
ByLayer
 70
     0
  3

 72
    65
 73
     0
 40
0.0
  0
LTYPE
  5
5D
330
5
100
AcDbSymbolTableRecord
100
AcDbLinetypeTableRecord
  2
Continuous
 70
     0
  3
Solid line
 72
    65
 73
     0
 40
0.0
  0
LTYPE
  5
80
330
5
100
AcDbSymbolTableRecord
100
AcDbLinetypeTableRecord
  2
HIDDEN
 70
     0
  3
Hidden __ __ __ __ __ __ __ __ __ __ __ __ __ _
 72
    65
 73
     2
 40
9.525
 49
6.35
 74
     0
 49
-3.175
 74
     0
  0
LTYPE
  5
81
330
5
100
AcDbSymbolTableRecord
100
AcDbLinetypeTableRecord
  2
PHANTOM2
 70
     0
  3
Phantom (.5x) ___ _ _ ___ _ _ ___ _ _ ___ _ _
 72
    65
 73
     6
 40
31.75
 49
15.875
 74
     0
 49
-3.175
 74
     0
 49
3.175
 74
     0
 49
-3.175
 74
     0
 49
3.175
 74
     0
 49
-3.175
 74
     0
  0
LTYPE
  5
82
330
5
100
AcDbSymbolTableRecord
100
AcDbLinetypeTableRecord
  2
CENTER
 70
     0
  3
Center ____ _ ____ _ ____ _ ____ _ ____ _ ____
 72
    65
 73
     4
 40
50.8
 49
31.75
 74
     0
 49
-6.35
 74
     0
 49
6.35
 74
     0
 49
-6.35
 74
     0
  0
LTYPE
  5
90
330
5
100
AcDbSymbolTableRecord
100
AcDbLinetypeTableRecord
  2
AM_ISO02W050
 70
     0
  3
__ __ __ __ __ __ __ __ __ __ __ __ __ __ __
 72
    65
 73
     2
 40
7.5
 49
6.0
 74
     0
 49
-1.5
 74
     0
  0
LTYPE
  5
91
330
5
100
AcDbSymbolTableRecord
100
AcDbLinetypeTableRecord
  2
AM_ISO08W050
 70
     0
  3
____ . ____ . ____ . ____ . ____ . ____ . ____
 72
    65
 73
     4
 40
18.0
 49
12.0
 74
     0
 49
-1.5
 74
     0
 49
3.0
 74
     0
 49
-1.5
 74
     0
  0
LTYPE
  5
92
330
5
100
AcDbSymbolTableRecord
100
AcDbLinetypeTableRecord
  2
AM_ISO09W050
 70
     0
  3
_____ . . _____ . . _____ . . ____ .. ____
 72
    65
 73
     6
 40
22.5
 49
12.0
 74
     0
 49
-1.5
 74
     0
 49
3.0
 74
     0
 49
-1.5
 74
     0
 49
3.0
 74
     0
 49
-1.5
 74
     0
  0
LTYPE
  5
93
330
5
100
AcDbSymbolTableRecord
100
AcDbLinetypeTableRecord
  2
Amconstr
 70
     0
  3
_______________________
 72
    65
 73
     2
 40
9999.0
 49
9999.0
 74
     0
 49
0.0
 74
     0
  0
LTYPE
  5
94
330
5
100
AcDbSymbolTableRecord
100
AcDbLinetypeTableRecord
  2
AM_ISO08W050x2
 70
     0
  3
__ . __ . __ . __ . __ . __
 72
    65
 73
     4
 40
9.0
 49
6.0
 74
     0
 49
-0.75
 74
     0
 49
1.5
 74
     0
 49
-0.75
 74
     0
  0
LTYPE
  5
95
330
5
100
AcDbSymbolTableRecord
100
AcDbLinetypeTableRecord
  2
AM_ISO02W050x2
 70
     0
  3
 _ _ _ _ _ _ _ _ _ _ _ _
 72
    65
 73
     2
 40
3.75
 49
3.0
 74
     0
 49
-0.75
 74
     0
  0
LTYPE
  5
96
330
5
100
AcDbSymbolTableRecord
100
AcDbLinetypeTableRecord
  2
Amzigzag
 70
     0
  3
/\/-/\/-/\/-/\/-/\/-/\/
 72
    65
 73
     2
 40
11.0001
 49
0.0001
 74
     4
 75
   136
340
8D
 46
0.04
 50
0.0
 44
0.0
 45
0.0
 49
-11.0
 74
     0
  0
LTYPE
  5
97
330
5
100
AcDbSymbolTableRecord
100
AcDbLinetypeTableRecord
  2
ACISOWELD
 70
     0
  3
_ _ _ _ _
 72
    65
 73
     2
 40
2.0
 49
2.0
 74
     0
 49
-1.0
 74
     0
  0
LTYPE
  5
98
330
5
100
AcDbSymbolTableRecord
100
AcDbLinetypeTableRecord
  2
ACISOTGL
 70
     0
  3
_ _ _ _ _
 72
    65
 73
     2
 40
3.0
 49
2.0
 74
     0
 49
-1.0
 74
     0
  0
LTYPE
  5
99
330
5
100
AcDbSymbolTableRecord
100
AcDbLinetypeTableRecord
  2
ACISOTGB
 70
     0
  3
__ . . __ . .
 72
    65
 73
     6
 40
9.0
 49
4.0
 74
     0
 49
-1.0
 74
     0
 49
1.0
 74
     0
 49
-1.0
 74
     0
 49
1.0
 74
     0
 49
-1.0
 74
     0
  0
ENDTAB
  0
TABLE
  2
LAYER
  5
2
330
0
100
AcDbSymbolTable
 70
     3
  0
LAYER
  5
54
330
2
100
AcDbSymbolTableRecord
100
AcDbLayerTableRecord
  2
0
 70
     0
 62
     7
  6
Continuous
370
    -3
390
F
347
21
348
0
1001
AcAecLayerStandard
1000

1000

  0
LAYER
  5
A5
330
2
100
AcDbSymbolTableRecord
100
AcDbLayerTableRecord
  2
Visible
 70
     0
 62
     7
  6
Continuous
370
    35
390
F
347
21
348
0
  0
ENDTAB
  0
TABLE
  2
STYLE
  5
3
330
0
100
AcDbSymbolTable
 70
     4
  0
STYLE
  5
55
330
3
100
AcDbSymbolTableRecord
100
AcDbTextStyleTableRecord
  2
Standard
 70
     0
 40
0.0
 41
1.0
 50
0.0
 71
     0
 42
3.5
  3
arial.ttf
  4

1001
ACAD
1000
Arial
1071
       34
  0
STYLE
  5
5A
330
3
100
AcDbSymbolTableRecord
100
AcDbTextStyleTableRecord
  2
Annotative
 70
     0
 40
0.0
 41
1.0
 50
0.0
 71
     0
 42
0.2
  3
txt
  4

1001
AcadAnnotative
1000
AnnotativeData
1002
{
1070
     1
1070
     1
1002
}
  0
STYLE
  5
8D
330
3
100
AcDbSymbolTableRecord
100
AcDbTextStyleTableRecord
  2

 70
     1
 40
0.0
 41
1.0
 50
0.0
 71
     0
 42
10.0
  3
genltshp.shx
  4

  0
STYLE
  5
8E
330
3
100
AcDbSymbolTableRecord
100
AcDbTextStyleTableRecord
  2
ACISOGDT
 70
     0
 40
0.0
 41
1.0
 50
0.0
 71
     0
 42
10.0
  3
amgdt.shx
  4

  0
ENDTAB
  0
TABLE
  2
VIEW
  5
6
330
0
100
AcDbSymbolTable
 70
     0
  0
ENDTAB
  0
TABLE
  2
UCS
  5
7
330
0
100
AcDbSymbolTable
 70
     0
  0
ENDTAB
  0
TABLE
  2
APPID
  5
9
330
0
100
AcDbSymbolTable
 70
    16
  0
APPID
  5
56
330
9
100
AcDbSymbolTableRecord
100
AcDbRegAppTableRecord
  2
ACAD
 70
     0
  0
APPID
  5
5E
330
9
100
AcDbSymbolTableRecord
100
AcDbRegAppTableRecord
  2
AcadAnnotative
 70
     0
  0
APPID
  5
78
330
9
100
AcDbSymbolTableRecord
100
AcDbRegAppTableRecord
  2
ACAD_PSEXT
 70
     0
  0
APPID
  5
79
330
9
100
AcDbSymbolTableRecord
100
AcDbRegAppTableRecord
  2
MCAD_NO_VIS
 70
     0
  0
APPID
  5
7A
330
9
100
AcDbSymbolTableRecord
100
AcDbRegAppTableRecord
  2
ACAD_TEMP_GRAPHIC
 70
     0
  0
APPID
  5
83
330
9
100
AcDbSymbolTableRecord
100
AcDbRegAppTableRecord
  2
ACAD_DSTYLE_DIMJAG
 70
     0
  0
APPID
  5
84
330
9
100
AcDbSymbolTableRecord
100
AcDbRegAppTableRecord
  2
ACAD_DSTYLE_DIMTALN
 70
     0
  0
APPID
  5
85
330
9
100
AcDbSymbolTableRecord
100
AcDbRegAppTableRecord
  2
ACAD_NAV_VCDISPLAY
 70
     0
  0
APPID
  5
86
330
9
100
AcDbSymbolTableRecord
100
AcDbRegAppTableRecord
  2
ACAD_DSTYLE_DIMBREAK
 70
     0
  0
APPID
  5
87
330
9
100
AcDbSymbolTableRecord
100
AcDbRegAppTableRecord
  2
FUSIONCURRENTTITLEBLOCK
 70
     0
  0
APPID
  5
88
330
9
100
AcDbSymbolTableRecord
100
AcDbRegAppTableRecord
  2
AcSynergy
 70
     0
  0
APPID
  5
89
330
9
100
AcDbSymbolTableRecord
100
AcDbRegAppTableRecord
  2
GENIUS_GENSCREG_15
 70
     0
  0
APPID
  5
8A
330
9
100
AcDbSymbolTableRecord
100
AcDbRegAppTableRecord
  2
GENIUS_GENOBJ-N-SDF_13
 70
     0
  0
APPID
  5
8B
330
9
100
AcDbSymbolTableRecord
100
AcDbRegAppTableRecord
  2
GENIUS_GENODEF_13
 70
     0
  0
APPID
  5
8C
330
9
100
AcDbSymbolTableRecord
100
AcDbRegAppTableRecord
  2
ACATTRIBSERVICES
 70
     0
  0
APPID
  5
3B6
330
9
100
AcDbSymbolTableRecord
100
AcDbRegAppTableRecord
  2
AcAecLayerStandard
 70
     0
  0
ENDTAB
  0
TABLE
  2
DIMSTYLE
  5
A
330
0
100
AcDbSymbolTable
 70
     4
100
AcDbDimStyleTable
 71
     1
340
9D
  0
DIMSTYLE
105
58
330
A
100
AcDbSymbolTableRecord
100
AcDbDimStyleTableRecord
  2
Standard
 70
     0
 41
3.5
 42
2.1
 43
10.5
 44
2.1
 78
    12
 79
     3
140
3.5
143
0.03937
146
0.714286
147
1.4
179
     2
271
     2
272
     2
284
    12
340
55
  0
DIMSTYLE
105
59
330
A
100
AcDbSymbolTableRecord
100
AcDbDimStyleTableRecord
  2
Annotative
 70
     0
 40
0.0
 41
3.5
 42
2.1
 43
10.5
 44
2.1
 73
     0
 74
     0
 77
     1
 78
    12
 79
     3
140
3.5
141
2.5
143
0.03937
146
0.714286
147
1.4
171
     3
172
     1
179
     2
271
     2
272
     2
274
     3
278
    44
283
     0
284
    12
340
55
1001
AcadAnnotative
1000
AnnotativeData
1002
{
1070
     1
1070
     1
1002
}
  0
DIMSTYLE
105
9C
330
A
100
AcDbSymbolTableRecord
100
AcDbDimStyleTableRecord
  2
ISO-25
 70
     0
  4
in
 41
3.5
 42
2.1
 43
10.5
 44
2.1
 47
0.1
 48
0.1
 73
     0
 74
     0
 77
     1
 78
    12
 79
     3
140
3.5
141
0.0
143
0.03937
146
0.714286
147
1.4
171
     4
172
     1
176
   256
177
   256
178
   256
179
     2
271
     2
272
     2
274
     4
283
     0
284
    12
285
     8
340
55
1001
ACAD_DSTYLE_DIMJAG
1070
   388
1040
1.5
1001
ACAD_DSTYLE_DIMTALN
1070
   392
1070
     1
1001
ACAD_DSTYLE_DIMBREAK
1070
   391
1040
3.5
  0
DIMSTYLE
105
9D
330
A
100
AcDbSymbolTableRecord
100
AcDbDimStyleTableRecord
  2
Dim-ISO-25
 70
     0
 41
3.5
 42
2.1
 43
10.5
 44
2.1
 47
0.1
 48
0.1
 73
     0
 74
     0
 77
     1
 78
    12
 79
     3
140
3.5
141
0.0
143
0.03937
146
0.714286
147
1.4
172
     1
179
     2
271
     2
272
     2
274
     4
283
     0
284
    12
285
    12
286
    12
340
55
1001
ACAD_DSTYLE_DIMJAG
1070
   388
1040
1.5
1001
ACAD_DSTYLE_DIMTALN
1070
   392
1070
     1
1001
ACAD_DSTYLE_DIMBREAK
1070
   391
1040
3.5
  0
ENDTAB
  0
TABLE
  2
BLOCK_RECORD
  5
1
330
0
100
AcDbSymbolTable
 70
     2
  0
BLOCK_RECORD
  5
70
102
{ACAD_XDICTIONARY
360
9E
102
}
330
1
100
AcDbSymbolTableRecord
100
AcDbBlockTableRecord
  2
*Model_Space
340
73
 70
     0
280
     1
281
     0
  0
BLOCK_RECORD
  5
6C
330
1
100
AcDbSymbolTableRecord
100
AcDbBlockTableRecord
  2
*Paper_Space
340
6F
 70
     0
280
     1
281
     0
  0
BLOCK_RECORD
  5
74
330
1
100
AcDbSymbolTableRecord
100
AcDbBlockTableRecord
  2
*Paper_Space0
340
77
 70
     0
280
     1
281
     0
  0
ENDTAB
  0
ENDSEC
  0
SECTION
  2
BLOCKS
  0
BLOCK
  5
71
330
70
100
AcDbEntity
  8
0
100
AcDbBlockBegin
  2
*Model_Space
 70
     0
 10
0.0
 20
0.0
 30
0.0
  3
*Model_Space
  1

  0
ENDBLK
  5
72
330
70
100
AcDbEntity
  8
0
100
AcDbBlockEnd
  0
BLOCK
  5
6D
330
6C
100
AcDbEntity
 67
     1
  8
0
100
AcDbBlockBegin
  2
*Paper_Space
 70
     0
 10
0.0
 20
0.0
 30
0.0
  3
*Paper_Space
  1

  0
ENDBLK
  5
6E
330
6C
100
AcDbEntity
 67
     1
  8
0
100
AcDbBlockEnd
  0
BLOCK
  5
75
330
74
100
AcDbEntity
 67
     1
  8
0
100
AcDbBlockBegin
  2
*Paper_Space0
 70
     0
 10
0.0
 20
0.0
 30
0.0
  3
*Paper_Space0
  1

  0
ENDBLK
  5
76
330
74
100
AcDbEntity
 67
     1
  8
0
100
AcDbBlockEnd
  0
ENDSEC
  0
SECTION
  2
ENTITIES
  0
ARC
  5
22E
330
70
100
AcDbEntity
  8
Visible
100
AcDbCircle
 10
30.02926
 20
280.92667
 30
0.0
 40
1.5
100
AcDbArc
 50
90.0
 51
180.0
  0
LINE
  5
22F
330
70
100
AcDbEntity
  8
Visible
100
AcDbLine
 10
30.02926
 20
282.42667
 30
0.0
 11
33.173
 21
282.42667
 31
0.0
  0
ARC
  5
230
330
70
100
AcDbEntity
  8
Visible
100
AcDbCircle
 10
22.506493
 20
150.575693
 30
0.0
 40
1.5
100
AcDbArc
 50
270.0
 51
0.0
  0
LINE
  5
231
330
70
100
AcDbEntity
  8
Visible
100
AcDbLine
 10
22.506493
 20
149.075693
 30
0.0
 11
19.717289
 21
149.075693
 31
0.0
  0
ARC
  5
232
330
70
100
AcDbEntity
  8
Visible
100
AcDbCircle
 10
30.02926
 20
150.575693
 30
0.0
 40
1.5
100
AcDbArc
 50
180.0
 51
270.0
  0
LINE
  5
233
330
70
100
AcDbEntity
  8
Visible
100
AcDbLine
 10
28.52926
 20
150.575693
 30
0.0
 11
28.52926
 21
160.366645
 31
0.0
  0
ARC
  5
234
330
70
100
AcDbEntity
  8
Visible
100
AcDbCircle
 10
30.02926
 20
160.366645
 30
0.0
 40
1.5
100
AcDbArc
 50
90.0
 51
180.0
  0
LINE
  5
235
330
70
100
AcDbEntity
  8
Visible
100
AcDbLine
 10
30.02926
 20
161.866645
 30
0.0
 11
33.171683
 21
161.866645
 31
0.0
  0
ARC
  5
236
330
70
100
AcDbEntity
  8
Visible
100
AcDbCircle
 10
22.506493
 20
160.366645
 30
0.0
 40
1.5
100
AcDbArc
 50
0.0
 51
90.0
  0
LINE
  5
237
330
70
100
AcDbEntity
  8
Visible
100
AcDbLine
 10
24.006493
 20
160.366645
 30
0.0
 11
24.006493
 21
150.575693
 31
0.0
  0
ARC
  5
238
330
70
100
AcDbEntity
  8
Visible
100
AcDbCircle
 10
22.506493
 20
166.016705
 30
0.0
 40
1.5
100
AcDbArc
 50
270.0
 51
0.0
  0
LINE
  5
239
330
70
100
AcDbEntity
  8
Visible
100
AcDbLine
 10
22.506493
 20
164.516705
 30
0.0
 11
19.718726
 21
164.516705
 31
0.0
  0
ARC
  5
23A
330
70
100
AcDbEntity
  8
Visible
100
AcDbCircle
 10
30.02926
 20
166.016705
 30
0.0
 40
1.5
100
AcDbArc
 50
180.0
 51
270.0
  0
LINE
  5
23B
330
70
100
AcDbEntity
  8
Visible
100
AcDbLine
 10
28.52926
 20
166.016705
 30
0.0
 11
28.52926
 21
175.136309
 31
0.0
  0
ARC
  5
23C
330
70
100
AcDbEntity
  8
Visible
100
AcDbCircle
 10
30.02926
 20
175.136309
 30
0.0
 40
1.5
100
AcDbArc
 50
90.0
 51
180.0
  0
LINE
  5
23D
330
70
100
AcDbEntity
  8
Visible
100
AcDbLine
 10
30.02926
 20
176.636309
 30
0.0
 11
33.170845
 21
176.636309
 31
0.0
  0
ARC
  5
23E
330
70
100
AcDbEntity
  8
Visible
100
AcDbCircle
 10
22.506493
 20
175.136309
 30
0.0
 40
1.5
100
AcDbArc
 50
0.0
 51
90.0
  0
LINE
  5
23F
330
70
100
AcDbEntity
  8
Visible
100
AcDbLine
 10
24.006493
 20
175.136309
 30
0.0
 11
24.006493
 21
166.016705
 31
0.0
  0
ARC
  5
240
330
70
100
AcDbEntity
  8
Visible
100
AcDbCircle
 10
22.506493
 20
180.786368
 30
0.0
 40
1.5
100
AcDbArc
 50
270.0
 51
0.0
  0
LINE
  5
241
330
70
100
AcDbEntity
  8
Visible
100
AcDbLine
 10
22.506493
 20
179.286368
 30
0.0
 11
19.717887
 21
179.286368
 31
0.0
  0
ARC
  5
242
330
70
100
AcDbEntity
  8
Visible
100
AcDbCircle
 10
30.02926
 20
180.786368
 30
0.0
 40
1.5
100
AcDbArc
 50
180.0
 51
270.0
  0
LINE
  5
243
330
70
100
AcDbEntity
  8
Visible
100
AcDbLine
 10
28.52926
 20
180.786368
 30
0.0
 11
28.52926
 21
190.011974
 31
0.0
  0
ARC
  5
244
330
70
100
AcDbEntity
  8
Visible
100
AcDbCircle
 10
30.02926
 20
190.011974
 30
0.0
 40
1.5
100
AcDbArc
 50
90.0
 51
180.0
  0
LINE
  5
245
330
70
100
AcDbEntity
  8
Visible
100
AcDbLine
 10
30.02926
 20
191.511974
 30
0.0
 11
33.170365
 21
191.511974
 31
0.0
  0
ARC
  5
246
330
70
100
AcDbEntity
  8
Visible
100
AcDbCircle
 10
22.506493
 20
190.011974
 30
0.0
 40
1.5
100
AcDbArc
 50
0.0
 51
90.0
  0
LINE
  5
247
330
70
100
AcDbEntity
  8
Visible
100
AcDbLine
 10
24.006493
 20
190.011974
 30
0.0
 11
24.006493
 21
180.786368
 31
0.0
  0
ARC
  5
248
330
70
100
AcDbEntity
  8
Visible
100
AcDbCircle
 10
22.506493
 20
195.662033
 30
0.0
 40
1.5
100
AcDbArc
 50
270.0
 51
0.0
  0
LINE
  5
249
330
70
100
AcDbEntity
  8
Visible
100
AcDbLine
 10
22.506493
 20
194.162033
 30
0.0
 11
19.717408
 21
194.162033
 31
0.0
  0
ARC
  5
24A
330
70
100
AcDbEntity
  8
Visible
100
AcDbCircle
 10
30.02926
 20
195.662033
 30
0.0
 40
1.5
100
AcDbArc
 50
180.0
 51
270.0
  0
LINE
  5
24B
330
70
100
AcDbEntity
  8
Visible
100
AcDbLine
 10
28.52926
 20
195.662033
 30
0.0
 11
28.52926
 21
205.276315
 31
0.0
  0
ARC
  5
24C
330
70
100
AcDbEntity
  8
Visible
100
AcDbCircle
 10
30.02926
 20
205.276315
 30
0.0
 40
1.5
100
AcDbArc
 50
90.0
 51
180.0
  0
LINE
  5
24D
330
70
100
AcDbEntity
  8
Visible
100
AcDbLine
 10
30.02926
 20
206.776315
 30
0.0
 11
33.171204
 21
206.776315
 31
0.0
  0
ARC
  5
24E
330
70
100
AcDbEntity
  8
Visible
100
AcDbCircle
 10
22.506493
 20
205.276315
 30
0.0
 40
1.5
100
AcDbArc
 50
0.0
 51
90.0
  0
LINE
  5
24F
330
70
100
AcDbEntity
  8
Visible
100
AcDbLine
 10
24.006493
 20
205.276315
 30
0.0
 11
24.006493
 21
195.662033
 31
0.0
  0
ARC
  5
250
330
70
100
AcDbEntity
  8
Visible
100
AcDbCircle
 10
22.506493
 20
210.926374
 30
0.0
 40
1.5
100
AcDbArc
 50
270.0
 51
0.0
  0
LINE
  5
251
330
70
100
AcDbEntity
  8
Visible
100
AcDbLine
 10
22.506493
 20
209.426374
 30
0.0
 11
19.718127
 21
209.426374
 31
0.0
  0
ARC
  5
252
330
70
100
AcDbEntity
  8
Visible
100
AcDbCircle
 10
30.02926
 20
210.926374
 30
0.0
 40
1.5
100
AcDbArc
 50
180.0
 51
270.0
  0
LINE
  5
253
330
70
100
AcDbEntity
  8
Visible
100
AcDbLine
 10
28.52926
 20
210.926374
 30
0.0
 11
28.52926
 21
220.222648
 31
0.0
  0
ARC
  5
254
330
70
100
AcDbEntity
  8
Visible
100
AcDbCircle
 10
30.02926
 20
220.222648
 30
0.0
 40
1.5
100
AcDbArc
 50
90.0
 51
180.0
  0
LINE
  5
255
330
70
100
AcDbEntity
  8
Visible
100
AcDbLine
 10
30.02926
 20
221.722648
 30
0.0
 11
33.170845
 21
221.722648
 31
0.0
  0
ARC
  5
256
330
70
100
AcDbEntity
  8
Visible
100
AcDbCircle
 10
22.506493
 20
220.222648
 30
0.0
 40
1.5
100
AcDbArc
 50
0.0
 51
90.0
  0
LINE
  5
257
330
70
100
AcDbEntity
  8
Visible
100
AcDbLine
 10
24.006493
 20
220.222648
 30
0.0
 11
24.006493
 21
210.926374
 31
0.0
  0
ARC
  5
258
330
70
100
AcDbEntity
  8
Visible
100
AcDbCircle
 10
22.506493
 20
225.872708
 30
0.0
 40
1.5
100
AcDbArc
 50
270.0
 51
0.0
  0
LINE
  5
259
330
70
100
AcDbEntity
  8
Visible
100
AcDbLine
 10
22.506493
 20
224.372708
 30
0.0
 11
19.717887
 21
224.372708
 31
0.0
  0
ARC
  5
25A
330
70
100
AcDbEntity
  8
Visible
100
AcDbCircle
 10
30.02926
 20
225.872708
 30
0.0
 40
1.5
100
AcDbArc
 50
180.0
 51
270.0
  0
LINE
  5
25B
330
70
100
AcDbEntity
  8
Visible
100
AcDbLine
 10
28.52926
 20
225.872708
 30
0.0
 11
28.52926
 21
234.709638
 31
0.0
  0
ARC
  5
25C
330
70
100
AcDbEntity
  8
Visible
100
AcDbCircle
 10
30.02926
 20
234.709638
 30
0.0
 40
1.5
100
AcDbArc
 50
90.0
 51
180.0
  0
LINE
  5
25D
330
70
100
AcDbEntity
  8
Visible
100
AcDbLine
 10
30.02926
 20
236.209638
 30
0.0
 11
33.169048
 21
236.209638
 31
0.0
  0
ARC
  5
25E
330
70
100
AcDbEntity
  8
Visible
100
AcDbCircle
 10
22.506493
 20
234.709638
 30
0.0
 40
1.5
100
AcDbArc
 50
0.0
 51
90.0
  0
LINE
  5
25F
330
70
100
AcDbEntity
  8
Visible
100
AcDbLine
 10
24.006493
 20
234.709638
 30
0.0
 11
24.006493
 21
225.872708
 31
0.0
  0
ARC
  5
260
330
70
100
AcDbEntity
  8
Visible
100
AcDbCircle
 10
22.506493
 20
240.359698
 30
0.0
 40
1.5
100
AcDbArc
 50
270.0
 51
0.0
  0
LINE
  5
261
330
70
100
AcDbEntity
  8
Visible
100
AcDbLine
 10
22.506493
 20
238.859698
 30
0.0
 11
19.716091
 21
238.859698
 31
0.0
  0
ARC
  5
262
330
70
100
AcDbEntity
  8
Visible
100
AcDbCircle
 10
30.02926
 20
240.359698
 30
0.0
 40
1.5
100
AcDbArc
 50
180.0
 51
270.0
  0
LINE
  5
263
330
70
100
AcDbEntity
  8
Visible
100
AcDbLine
 10
28.52926
 20
240.359698
 30
0.0
 11
28.52926
 21
250.115316
 31
0.0
  0
ARC
  5
264
330
70
100
AcDbEntity
  8
Visible
100
AcDbCircle
 10
22.506493
 20
250.115316
 30
0.0
 40
1.5
100
AcDbArc
 50
0.0
 51
90.0
  0
LINE
  5
265
330
70
100
AcDbEntity
  8
Visible
100
AcDbLine
 10
24.006493
 20
250.115316
 30
0.0
 11
24.006493
 21
240.359698
 31
0.0
  0
ARC
  5
266
330
70
100
AcDbEntity
  8
Visible
100
AcDbCircle
 10
22.506493
 20
255.765375
 30
0.0
 40
1.5
100
AcDbArc
 50
270.0
 51
0.0
  0
LINE
  5
267
330
70
100
AcDbEntity
  8
Visible
100
AcDbLine
 10
22.506493
 20
254.265375
 30
0.0
 11
19.717408
 21
254.265375
 31
0.0
  0
ARC
  5
268
330
70
100
AcDbEntity
  8
Visible
100
AcDbCircle
 10
30.02926
 20
250.115316
 30
0.0
 40
1.5
100
AcDbArc
 50
90.0
 51
180.0
  0
LINE
  5
269
330
70
100
AcDbEntity
  8
Visible
100
AcDbLine
 10
30.02926
 20
251.615316
 30
0.0
 11
33.170365
 21
251.615316
 31
0.0
  0
ARC
  5
26A
330
70
100
AcDbEntity
  8
Visible
100
AcDbCircle
 10
30.02926
 20
255.765375
 30
0.0
 40
1.5
100
AcDbArc
 50
180.0
 51
270.0
  0
LINE
  5
26B
330
70
100
AcDbEntity
  8
Visible
100
AcDbLine
 10
28.52926
 20
255.765375
 30
0.0
 11
28.52926
 21
265.344322
 31
0.0
  0
ARC
  5
26C
330
70
100
AcDbEntity
  8
Visible
100
AcDbCircle
 10
30.02926
 20
270.994381
 30
0.0
 40
1.5
100
AcDbArc
 50
180.0
 51
270.0
  0
LINE
  5
26D
330
70
100
AcDbEntity
  8
Visible
100
AcDbLine
 10
28.52926
 20
270.994381
 30
0.0
 11
28.52926
 21
280.92667
 31
0.0
  0
ARC
  5
26E
330
70
100
AcDbEntity
  8
Visible
100
AcDbCircle
 10
22.506493
 20
270.994381
 30
0.0
 40
1.5
100
AcDbArc
 50
270.0
 51
0.0
  0
LINE
  5
26F
330
70
100
AcDbEntity
  8
Visible
100
AcDbLine
 10
22.506493
 20
269.494381
 30
0.0
 11
19.718127
 21
269.494381
 31
0.0
  0
ARC
  5
270
330
70
100
AcDbEntity
  8
Visible
100
AcDbCircle
 10
22.506493
 20
265.344322
 30
0.0
 40
1.5
100
AcDbArc
 50
0.0
 51
90.0
  0
LINE
  5
271
330
70
100
AcDbEntity
  8
Visible
100
AcDbLine
 10
24.006493
 20
265.344322
 30
0.0
 11
24.006493
 21
255.765375
 31
0.0
  0
ARC
  5
272
330
70
100
AcDbEntity
  8
Visible
100
AcDbCircle
 10
22.506493
 20
280.92667
 30
0.0
 40
1.5
100
AcDbArc
 50
0.0
 51
90.0
  0
LINE
  5
273
330
70
100
AcDbEntity
  8
Visible
100
AcDbLine
 10
24.006493
 20
280.92667
 30
0.0
 11
24.006493
 21
270.994381
 31
0.0
  0
ARC
  5
274
330
70
100
AcDbEntity
  8
Visible
100
AcDbCircle
 10
30.02926
 20
265.344322
 30
0.0
 40
1.5
100
AcDbArc
 50
90.0
 51
180.0
  0
LINE
  5
275
330
70
100
AcDbEntity
  8
Visible
100
AcDbLine
 10
30.02926
 20
266.844322
 30
0.0
 11
33.171084
 21
266.844322
 31
0.0
  0
SPLINE
  5
276
330
70
100
AcDbEntity
  8
Visible
100
AcDbSpline
210
0.0
220
0.0
230
1.0
 70
    12
 71
     3
 72
     8
 73
     4
 74
     0
 42
0.000000001
 43
0.0000000001
 40
0.0
 40
0.0
 40
0.0
 40
0.0
 40
1.0
 40
1.0
 40
1.0
 40
1.0
 10
12.80557580780441
 20
268.2223541277508
 30
0.0
 41
1.0
 10
12.84091006470589
 20
269.6003854292958
 30
0.0
 41
1.0
 10
14.00693582484018
 20
270.7664111894301
 30
0.0
 41
1.0
 10
15.38496645243867
 20
270.8017447723869
 30
0.0
 41
1.0
  0
SPLINE
  5
277
330
70
100
AcDbEntity
  8
Visible
100
AcDbSpline
210
0.0
220
0.0
230
1.0
 70
    12
 71
     3
 72
     8
 73
     4
 74
     0
 42
0.000000001
 43
0.0000000001
 40
0.0
 40
0.0
 40
0.0
 40
0.0
 40
1.0
 40
1.0
 40
1.0
 40
1.0
 10
15.42030070934015
 20
265.5722949693136
 30
0.0
 41
1.0
 10
13.9716015679387
 20
265.5722949693136
 30
0.0
 41
1.0
 10
12.80557580780441
 20
266.7736556602958
 30
0.0
 41
1.0
 10
12.80557580780441
 20
268.2223541277508
 30
0.0
 41
1.0
  0
SPLINE
  5
278
330
70
100
AcDbEntity
  8
Visible
100
AcDbSpline
210
0.0
220
0.0
230
1.0
 70
    12
 71
     3
 72
     8
 73
     4
 74
     0
 42
0.000000001
 43
0.0000000001
 40
0.0
 40
0.0
 40
0.0
 40
0.0
 40
1.0
 40
1.0
 40
1.0
 40
1.0
 10
18.03502561087589
 20
268.1870205447958
 30
0.0
 41
1.0
 10
17.99969202791908
 20
266.7383193815585
 30
0.0
 41
1.0
 10
16.83366626778479
 20
265.5722949693136
 30
0.0
 41
1.0
 10
15.42030070934015
 20
265.5722949693136
 30
0.0
 41
1.0
  0
SPLINE
  5
279
330
70
100
AcDbEntity
  8
Visible
100
AcDbSpline
210
0.0
220
0.0
230
1.0
 70
    12
 71
     3
 72
     8
 73
     4
 74
     0
 42
0.000000001
 43
0.0000000001
 40
0.0
 40
0.0
 40
0.0
 40
0.0
 40
1.0
 40
1.0
 40
1.0
 40
1.0
 10
15.38496645243867
 20
270.8017447723869
 30
0.0
 41
1.0
 10
16.83366491989545
 20
270.8370783553437
 30
0.0
 41
1.0
 10
18.03502561087589
 20
269.6357190122526
 30
0.0
 41
1.0
 10
18.03502561087589
 20
268.1870205447958
 30
0.0
 41
1.0
  0
SPLINE
  5
27A
330
70
100
AcDbEntity
  8
Visible
100
AcDbSpline
210
0.0
220
0.0
230
1.0
 70
    12
 71
     3
 72
     8
 73
     4
 74
     0
 42
0.000000001
 43
0.0000000001
 40
0.0
 40
0.0
 40
0.0
 40
0.0
 40
1.0
 40
1.0
 40
1.0
 40
1.0
 10
12.80557580780441
 20
253.2053522299393
 30
0.0
 41
1.0
 10
12.84091006470589
 20
254.5833835314825
 30
0.0
 41
1.0
 10
14.00693582484018
 20
255.7494079437274
 30
0.0
 41
1.0
 10
15.38496645243867
 20
255.7847442224629
 30
0.0
 41
1.0
  0
SPLINE
  5
27B
330
70
100
AcDbEntity
  8
Visible
100
AcDbSpline
210
0.0
220
0.0
230
1.0
 70
    12
 71
     3
 72
     8
 73
     4
 74
     0
 42
0.000000001
 43
0.0000000001
 40
0.0
 40
0.0
 40
0.0
 40
0.0
 40
1.0
 40
1.0
 40
1.0
 40
1.0
 10
15.42030070934015
 20
250.5552930715021
 30
0.0
 41
1.0
 10
13.9716015679387
 20
250.5552930715021
 30
0.0
 41
1.0
 10
12.80557580780441
 20
251.7566537624825
 30
0.0
 41
1.0
 10
12.80557580780441
 20
253.2053522299393
 30
0.0
 41
1.0
  0
SPLINE
  5
27C
330
70
100
AcDbEntity
  8
Visible
100
AcDbSpline
210
0.0
220
0.0
230
1.0
 70
    12
 71
     3
 72
     8
 73
     4
 74
     0
 42
0.000000001
 43
0.0000000001
 40
0.0
 40
0.0
 40
0.0
 40
0.0
 40
1.0
 40
1.0
 40
1.0
 40
1.0
 10
18.03502561087589
 20
253.1700186469825
 30
0.0
 41
1.0
 10
17.99969202791908
 20
251.7213174837471
 30
0.0
 41
1.0
 10
16.83366626778479
 20
250.5552930715021
 30
0.0
 41
1.0
 10
15.42030070934015
 20
250.5552930715021
 30
0.0
 41
1.0
  0
SPLINE
  5
27D
330
70
100
AcDbEntity
  8
Visible
100
AcDbSpline
210
0.0
220
0.0
230
1.0
 70
    12
 71
     3
 72
     8
 73
     4
 74
     0
 42
0.000000001
 43
0.0000000001
 40
0.0
 40
0.0
 40
0.0
 40
0.0
 40
1.0
 40
1.0
 40
1.0
 40
1.0
 10
15.38496645243867
 20
255.7847442224629
 30
0.0
 41
1.0
 10
16.83366491989545
 20
255.8200778054197
 30
0.0
 41
1.0
 10
18.03502561087589
 20
254.6187171144393
 30
0.0
 41
1.0
 10
18.03502561087589
 20
253.1700186469825
 30
0.0
 41
1.0
  0
SPLINE
  5
27E
330
70
100
AcDbEntity
  8
Visible
100
AcDbSpline
210
0.0
220
0.0
230
1.0
 70
    12
 71
     3
 72
     8
 73
     4
 74
     0
 42
0.000000001
 43
0.0000000001
 40
0.0
 40
0.0
 40
0.0
 40
0.0
 40
1.0
 40
1.0
 40
1.0
 40
1.0
 10
12.80557580780441
 20
238.188350332126
 30
0.0
 41
1.0
 10
12.84091006470589
 20
239.5663789378905
 30
0.0
 41
1.0
 10
14.00693582484018
 20
240.7324060459141
 30
0.0
 41
1.0
 10
15.38496645243867
 20
240.7677423246514
 30
0.0
 41
1.0
  0
SPLINE
  5
27F
330
70
100
AcDbEntity
  8
Visible
100
AcDbSpline
210
0.0
220
0.0
230
1.0
 70
    12
 71
     3
 72
     8
 73
     4
 74
     0
 42
0.000000001
 43
0.0000000001
 40
0.0
 40
0.0
 40
0.0
 40
0.0
 40
1.0
 40
1.0
 40
1.0
 40
1.0
 10
15.42030070934015
 20
235.5382911736888
 30
0.0
 41
1.0
 10
13.9716015679387
 20
235.5382911736888
 30
0.0
 41
1.0
 10
12.80557580780441
 20
236.7396491688905
 30
0.0
 41
1.0
 10
12.80557580780441
 20
238.188350332126
 30
0.0
 41
1.0
  0
SPLINE
  5
280
330
70
100
AcDbEntity
  8
Visible
100
AcDbSpline
210
0.0
220
0.0
230
1.0
 70
    12
 71
     3
 72
     8
 73
     4
 74
     0
 42
0.000000001
 43
0.0000000001
 40
0.0
 40
0.0
 40
0.0
 40
0.0
 40
1.0
 40
1.0
 40
1.0
 40
1.0
 10
18.03502561087589
 20
238.1530194449497
 30
0.0
 41
1.0
 10
17.99969202791908
 20
236.7043182817124
 30
0.0
 41
1.0
 10
16.83366626778479
 20
235.5382911736888
 30
0.0
 41
1.0
 10
15.42030070934015
 20
235.5382911736888
 30
0.0
 41
1.0
  0
SPLINE
  5
281
330
70
100
AcDbEntity
  8
Visible
100
AcDbSpline
210
0.0
220
0.0
230
1.0
 70
    12
 71
     3
 72
     8
 73
     4
 74
     0
 42
0.000000001
 43
0.0000000001
 40
0.0
 40
0.0
 40
0.0
 40
0.0
 40
1.0
 40
1.0
 40
1.0
 40
1.0
 10
15.38496645243867
 20
240.7677423246514
 30
0.0
 41
1.0
 10
16.83366491989545
 20
240.8030786033869
 30
0.0
 41
1.0
 10
18.03502561087589
 20
239.601715216626
 30
0.0
 41
1.0
 10
18.03502561087589
 20
238.1530194449497
 30
0.0
 41
1.0
  0
SPLINE
  5
282
330
70
100
AcDbEntity
  8
Visible
100
AcDbSpline
210
0.0
220
0.0
230
1.0
 70
    12
 71
     3
 72
     8
 73
     4
 74
     0
 42
0.000000001
 43
0.0000000001
 40
0.0
 40
0.0
 40
0.0
 40
0.0
 40
1.0
 40
1.0
 40
1.0
 40
1.0
 10
12.80557580780441
 20
223.1713484343145
 30
0.0
 41
1.0
 10
12.84091006470589
 20
224.5493770400772
 30
0.0
 41
1.0
 10
14.00693582484018
 20
225.7154041481026
 30
0.0
 41
1.0
 10
15.38496645243867
 20
225.7507404268381
 30
0.0
 41
1.0
  0
SPLINE
  5
283
330
70
100
AcDbEntity
  8
Visible
100
AcDbSpline
210
0.0
220
0.0
230
1.0
 70
    12
 71
     3
 72
     8
 73
     4
 74
     0
 42
0.000000001
 43
0.0000000001
 40
0.0
 40
0.0
 40
0.0
 40
0.0
 40
1.0
 40
1.0
 40
1.0
 40
1.0
 10
15.42030070934015
 20
220.5212892758755
 30
0.0
 41
1.0
 10
13.9716015679387
 20
220.5212892758755
 30
0.0
 41
1.0
 10
12.80557580780441
 20
221.7226472710772
 30
0.0
 41
1.0
 10
12.80557580780441
 20
223.1713484343145
 30
0.0
 41
1.0
  0
SPLINE
  5
284
330
70
100
AcDbEntity
  8
Visible
100
AcDbSpline
210
0.0
220
0.0
230
1.0
 70
    12
 71
     3
 72
     8
 73
     4
 74
     0
 42
0.000000001
 43
0.0000000001
 40
0.0
 40
0.0
 40
0.0
 40
0.0
 40
1.0
 40
1.0
 40
1.0
 40
1.0
 10
18.03502561087589
 20
223.1360175471364
 30
0.0
 41
1.0
 10
17.99969202791908
 20
221.6873163839009
 30
0.0
 41
1.0
 10
16.83366626778479
 20
220.5212892758755
 30
0.0
 41
1.0
 10
15.42030070934015
 20
220.5212892758755
 30
0.0
 41
1.0
  0
SPLINE
  5
285
330
70
100
AcDbEntity
  8
Visible
100
AcDbSpline
210
0.0
220
0.0
230
1.0
 70
    12
 71
     3
 72
     8
 73
     4
 74
     0
 42
0.000000001
 43
0.0000000001
 40
0.0
 40
0.0
 40
0.0
 40
0.0
 40
1.0
 40
1.0
 40
1.0
 40
1.0
 10
15.38496645243867
 20
225.7507404268381
 30
0.0
 41
1.0
 10
16.83366491989545
 20
225.7860767055736
 30
0.0
 41
1.0
 10
18.03502561087589
 20
224.5847133188145
 30
0.0
 41
1.0
 10
18.03502561087589
 20
223.1360175471364
 30
0.0
 41
1.0
  0
SPLINE
  5
286
330
70
100
AcDbEntity
  8
Visible
100
AcDbSpline
210
0.0
220
0.0
230
1.0
 70
    12
 71
     3
 72
     8
 73
     4
 74
     0
 42
0.000000001
 43
0.0000000001
 40
0.0
 40
0.0
 40
0.0
 40
0.0
 40
1.0
 40
1.0
 40
1.0
 40
1.0
 10
12.80557580780441
 20
208.1543465365012
 30
0.0
 41
1.0
 10
12.84091006470589
 20
209.5323751422657
 30
0.0
 41
1.0
 10
14.00693582484018
 20
210.6984022502893
 30
0.0
 41
1.0
 10
15.38496645243867
 20
210.7337385290248
 30
0.0
 41
1.0
  0
SPLINE
  5
287
330
70
100
AcDbEntity
  8
Visible
100
AcDbSpline
210
0.0
220
0.0
230
1.0
 70
    12
 71
     3
 72
     8
 73
     4
 74
     0
 42
0.000000001
 43
0.0000000001
 40
0.0
 40
0.0
 40
0.0
 40
0.0
 40
1.0
 40
1.0
 40
1.0
 40
1.0
 10
15.42030070934015
 20
205.504287378064
 30
0.0
 41
1.0
 10
13.9716015679387
 20
205.504287378064
 30
0.0
 41
1.0
 10
12.80557580780441
 20
206.7056453732657
 30
0.0
 41
1.0
 10
12.80557580780441
 20
208.1543465365012
 30
0.0
 41
1.0
  0
SPLINE
  5
288
330
70
100
AcDbEntity
  8
Visible
100
AcDbSpline
210
0.0
220
0.0
230
1.0
 70
    12
 71
     3
 72
     8
 73
     4
 74
     0
 42
0.000000001
 43
0.0000000001
 40
0.0
 40
0.0
 40
0.0
 40
0.0
 40
1.0
 40
1.0
 40
1.0
 40
1.0
 10
18.03502561087589
 20
208.1190156493249
 30
0.0
 41
1.0
 10
17.99969202791908
 20
206.6703144860876
 30
0.0
 41
1.0
 10
16.83366626778479
 20
205.504287378064
 30
0.0
 41
1.0
 10
15.42030070934015
 20
205.504287378064
 30
0.0
 41
1.0
  0
SPLINE
  5
289
330
70
100
AcDbEntity
  8
Visible
100
AcDbSpline
210
0.0
220
0.0
230
1.0
 70
    12
 71
     3
 72
     8
 73
     4
 74
     0
 42
0.000000001
 43
0.0000000001
 40
0.0
 40
0.0
 40
0.0
 40
0.0
 40
1.0
 40
1.0
 40
1.0
 40
1.0
 10
15.38496645243867
 20
210.7337385290248
 30
0.0
 41
1.0
 10
16.83366491989545
 20
210.7690748077621
 30
0.0
 41
1.0
 10
18.03502561087589
 20
209.5677114210011
 30
0.0
 41
1.0
 10
18.03502561087589
 20
208.1190156493249
 30
0.0
 41
1.0
  0
SPLINE
  5
28A
330
70
100
AcDbEntity
  8
Visible
100
AcDbSpline
210
0.0
220
0.0
230
1.0
 70
    12
 71
     3
 72
     8
 73
     4
 74
     0
 42
0.000000001
 43
0.0000000001
 40
0.0
 40
0.0
 40
0.0
 40
0.0
 40
1.0
 40
1.0
 40
1.0
 40
1.0
 10
12.80557580780441
 20
193.1020137515115
 30
0.0
 41
1.0
 10
12.84091006470589
 20
194.480042357276
 30
0.0
 41
1.0
 10
14.00693582484018
 20
195.6460748568588
 30
0.0
 41
1.0
 10
15.38496645243867
 20
195.681400352476
 30
0.0
 41
1.0
  0
SPLINE
  5
28B
330
70
100
AcDbEntity
  8
Visible
100
AcDbSpline
210
0.0
220
0.0
230
1.0
 70
    12
 71
     3
 72
     8
 73
     4
 74
     0
 42
0.000000001
 43
0.0000000001
 40
0.0
 40
0.0
 40
0.0
 40
0.0
 40
1.0
 40
1.0
 40
1.0
 40
1.0
 10
15.42030070934015
 20
190.4519545930743
 30
0.0
 41
1.0
 10
13.9716015679387
 20
190.4519545930743
 30
0.0
 41
1.0
 10
12.80557580780441
 20
191.6533125882761
 30
0.0
 41
1.0
 10
12.80557580780441
 20
193.1020137515115
 30
0.0
 41
1.0
  0
SPLINE
  5
28C
330
70
100
AcDbEntity
  8
Visible
100
AcDbSpline
210
0.0
220
0.0
230
1.0
 70
    12
 71
     3
 72
     8
 73
     4
 74
     0
 42
0.000000001
 43
0.0000000001
 40
0.0
 40
0.0
 40
0.0
 40
0.0
 40
1.0
 40
1.0
 40
1.0
 40
1.0
 10
18.03502561087589
 20
193.066677472776
 30
0.0
 41
1.0
 10
17.99969202791908
 20
191.6179763095388
 30
0.0
 41
1.0
 10
16.83366626778479
 20
190.4519545930743
 30
0.0
 41
1.0
 10
15.42030070934015
 20
190.4519545930743
 30
0.0
 41
1.0
  0
SPLINE
  5
28D
330
70
100
AcDbEntity
  8
Visible
100
AcDbSpline
210
0.0
220
0.0
230
1.0
 70
    12
 71
     3
 72
     8
 73
     4
 74
     0
 42
0.000000001
 43
0.0000000001
 40
0.0
 40
0.0
 40
0.0
 40
0.0
 40
1.0
 40
1.0
 40
1.0
 40
1.0
 10
15.38496645243867
 20
195.681400352476
 30
0.0
 41
1.0
 10
16.83366491989545
 20
195.7167366312133
 30
0.0
 41
1.0
 10
18.03502561087589
 20
194.5153786360115
 30
0.0
 41
1.0
 10
18.03502561087589
 20
193.066677472776
 30
0.0
 41
1.0
  0
SPLINE
  5
28E
330
70
100
AcDbEntity
  8
Visible
100
AcDbSpline
210
0.0
220
0.0
230
1.0
 70
    12
 71
     3
 72
     8
 73
     4
 74
     0
 42
0.000000001
 43
0.0000000001
 40
0.0
 40
0.0
 40
0.0
 40
0.0
 40
1.0
 40
1.0
 40
1.0
 40
1.0
 10
12.80557580780441
 20
178.0850118536982
 30
0.0
 41
1.0
 10
12.84091006470589
 20
179.4630404594627
 30
0.0
 41
1.0
 10
14.00693582484018
 20
180.6290729590455
 30
0.0
 41
1.0
 10
15.38496645243867
 20
180.6643984546645
 30
0.0
 41
1.0
  0
SPLINE
  5
28F
330
70
100
AcDbEntity
  8
Visible
100
AcDbSpline
210
0.0
220
0.0
230
1.0
 70
    12
 71
     3
 72
     8
 73
     4
 74
     0
 42
0.000000001
 43
0.0000000001
 40
0.0
 40
0.0
 40
0.0
 40
0.0
 40
1.0
 40
1.0
 40
1.0
 40
1.0
 10
15.42030070934015
 20
175.434952695261
 30
0.0
 41
1.0
 10
13.9716015679387
 20
175.434952695261
 30
0.0
 41
1.0
 10
12.80557580780441
 20
176.6363106904627
 30
0.0
 41
1.0
 10
12.80557580780441
 20
178.0850118536982
 30
0.0
 41
1.0
  0
SPLINE
  5
290
330
70
100
AcDbEntity
  8
Visible
100
AcDbSpline
210
0.0
220
0.0
230
1.0
 70
    12
 71
     3
 72
     8
 73
     4
 74
     0
 42
0.000000001
 43
0.0000000001
 40
0.0
 40
0.0
 40
0.0
 40
0.0
 40
1.0
 40
1.0
 40
1.0
 40
1.0
 10
18.03502561087589
 20
178.0496755749627
 30
0.0
 41
1.0
 10
17.99969202791908
 20
176.6009744117273
 30
0.0
 41
1.0
 10
16.83366626778479
 20
175.434952695261
 30
0.0
 41
1.0
 10
15.42030070934015
 20
175.434952695261
 30
0.0
 41
1.0
  0
SPLINE
  5
291
330
70
100
AcDbEntity
  8
Visible
100
AcDbSpline
210
0.0
220
0.0
230
1.0
 70
    12
 71
     3
 72
     8
 73
     4
 74
     0
 42
0.000000001
 43
0.0000000001
 40
0.0
 40
0.0
 40
0.0
 40
0.0
 40
1.0
 40
1.0
 40
1.0
 40
1.0
 10
15.38496645243867
 20
180.6643984546645
 30
0.0
 41
1.0
 10
16.83366491989545
 20
180.6997347333999
 30
0.0
 41
1.0
 10
18.03502561087589
 20
179.4983767381982
 30
0.0
 41
1.0
 10
18.03502561087589
 20
178.0496755749627
 30
0.0
 41
1.0
  0
SPLINE
  5
292
330
70
100
AcDbEntity
  8
Visible
100
AcDbSpline
210
0.0
220
0.0
230
1.0
 70
    12
 71
     3
 72
     8
 73
     4
 74
     0
 42
0.000000001
 43
0.0000000001
 40
0.0
 40
0.0
 40
0.0
 40
0.0
 40
1.0
 40
1.0
 40
1.0
 40
1.0
 10
40.08351969612158
 20
147.9096629431296
 30
0.0
 41
1.0
 10
40.04818611316477
 20
146.5316343373651
 30
0.0
 41
1.0
 10
38.88215900514115
 20
145.3656018377824
 30
0.0
 41
1.0
 10
37.50412770359799
 20
145.3302763421634
 30
0.0
 41
1.0
  0
SPLINE
  5
293
330
70
100
AcDbEntity
  8
Visible
100
AcDbSpline
210
0.0
220
0.0
230
1.0
 70
    12
 71
     3
 72
     8
 73
     4
 74
     0
 42
0.000000001
 43
0.0000000001
 40
0.0
 40
0.0
 40
0.0
 40
0.0
 40
1.0
 40
1.0
 40
1.0
 40
1.0
 10
37.46879412064118
 20
150.5597221015668
 30
0.0
 41
1.0
 10
38.91749258809796
 20
150.5597221015668
 30
0.0
 41
1.0
 10
40.08351969612158
 20
149.3583641063651
 30
0.0
 41
1.0
 10
40.08351969612158
 20
147.9096629431296
 30
0.0
 41
1.0
  0
SPLINE
  5
294
330
70
100
AcDbEntity
  8
Visible
100
AcDbSpline
210
0.0
220
0.0
230
1.0
 70
    12
 71
     3
 72
     8
 73
     4
 74
     0
 42
0.000000001
 43
0.0000000001
 40
0.0
 40
0.0
 40
0.0
 40
0.0
 40
1.0
 40
1.0
 40
1.0
 40
1.0
 10
34.85406854515896
 20
147.9449992218651
 30
0.0
 41
1.0
 10
34.88940212811576
 20
149.3937003851006
 30
0.0
 41
1.0
 10
36.05542923614121
 20
150.5597221015668
 30
0.0
 41
1.0
 10
37.46879412064118
 20
150.5597221015668
 30
0.0
 41
1.0
  0
SPLINE
  5
295
330
70
100
AcDbEntity
  8
Visible
100
AcDbSpline
210
0.0
220
0.0
230
1.0
 70
    12
 71
     3
 72
     8
 73
     4
 74
     0
 42
0.000000001
 43
0.0000000001
 40
0.0
 40
0.0
 40
0.0
 40
0.0
 40
1.0
 40
1.0
 40
1.0
 40
1.0
 10
37.50412770359799
 20
145.3302763421634
 30
0.0
 41
1.0
 10
36.05542923614121
 20
145.2949400634279
 30
0.0
 41
1.0
 10
34.85406854515896
 20
146.4962980586297
 30
0.0
 41
1.0
 10
34.85406854515896
 20
147.9449992218651
 30
0.0
 41
1.0
  0
SPLINE
  5
296
330
70
100
AcDbEntity
  8
Visible
100
AcDbSpline
210
0.0
220
0.0
230
1.0
 70
    12
 71
     3
 72
     8
 73
     4
 74
     0
 42
0.000000001
 43
0.0000000001
 40
0.0
 40
0.0
 40
0.0
 40
0.0
 40
1.0
 40
1.0
 40
1.0
 40
1.0
 10
12.80557580780441
 20
148.0510080580734
 30
0.0
 41
1.0
 10
12.84091006470589
 20
149.4290366638379
 30
0.0
 41
1.0
 10
14.00693582484018
 20
150.5950691634207
 30
0.0
 41
1.0
 10
15.38496645243867
 20
150.6303946590396
 30
0.0
 41
1.0
  0
SPLINE
  5
297
330
70
100
AcDbEntity
  8
Visible
100
AcDbSpline
210
0.0
220
0.0
230
1.0
 70
    12
 71
     3
 72
     8
 73
     4
 74
     0
 42
0.000000001
 43
0.0000000001
 40
0.0
 40
0.0
 40
0.0
 40
0.0
 40
1.0
 40
1.0
 40
1.0
 40
1.0
 10
15.42030070934015
 20
145.4009488996362
 30
0.0
 41
1.0
 10
13.9716015679387
 20
145.4009488996362
 30
0.0
 41
1.0
 10
12.80557580780441
 20
146.602306894838
 30
0.0
 41
1.0
 10
12.80557580780441
 20
148.0510080580734
 30
0.0
 41
1.0
  0
SPLINE
  5
298
330
70
100
AcDbEntity
  8
Visible
100
AcDbSpline
210
0.0
220
0.0
230
1.0
 70
    12
 71
     3
 72
     8
 73
     4
 74
     0
 42
0.000000001
 43
0.0000000001
 40
0.0
 40
0.0
 40
0.0
 40
0.0
 40
1.0
 40
1.0
 40
1.0
 40
1.0
 10
18.03502561087589
 20
148.0156717793379
 30
0.0
 41
1.0
 10
17.99969202791908
 20
146.5669706161006
 30
0.0
 41
1.0
 10
16.83366626778479
 20
145.4009488996362
 30
0.0
 41
1.0
 10
15.42030070934015
 20
145.4009488996362
 30
0.0
 41
1.0
  0
SPLINE
  5
299
330
70
100
AcDbEntity
  8
Visible
100
AcDbSpline
210
0.0
220
0.0
230
1.0
 70
    12
 71
     3
 72
     8
 73
     4
 74
     0
 42
0.000000001
 43
0.0000000001
 40
0.0
 40
0.0
 40
0.0
 40
0.0
 40
1.0
 40
1.0
 40
1.0
 40
1.0
 10
15.38496645243867
 20
150.6303946590396
 30
0.0
 41
1.0
 10
16.83366491989545
 20
150.6657309377751
 30
0.0
 41
1.0
 10
18.03502561087589
 20
149.4643729425734
 30
0.0
 41
1.0
 10
18.03502561087589
 20
148.0156717793379
 30
0.0
 41
1.0
  0
SPLINE
  5
29A
330
70
100
AcDbEntity
  8
Visible
100
AcDbSpline
210
0.0
220
0.0
230
1.0
 70
    12
 71
     3
 72
     8
 73
     4
 74
     0
 42
0.000000001
 43
0.0000000001
 40
0.0
 40
0.0
 40
0.0
 40
0.0
 40
1.0
 40
1.0
 40
1.0
 40
1.0
 10
40.08351969612158
 20
283.0980183240135
 30
0.0
 41
1.0
 10
40.04818611316477
 20
281.7199876964151
 30
0.0
 41
1.0
 10
38.88215900514115
 20
280.5539619362808
 30
0.0
 41
1.0
 10
37.50412770359799
 20
280.5186270054346
 30
0.0
 41
1.0
  0
SPLINE
  5
29B
330
70
100
AcDbEntity
  8
Visible
100
AcDbSpline
210
0.0
220
0.0
230
1.0
 70
    12
 71
     3
 72
     8
 73
     4
 74
     0
 42
0.000000001
 43
0.0000000001
 40
0.0
 40
0.0
 40
0.0
 40
0.0
 40
1.0
 40
1.0
 40
1.0
 40
1.0
 10
37.46879412064118
 20
285.7480774824507
 30
0.0
 41
1.0
 10
38.91749258809796
 20
285.7480774824507
 30
0.0
 41
1.0
 10
40.08351969612158
 20
284.546717465415
 30
0.0
 41
1.0
 10
40.08351969612158
 20
283.0980183240135
 30
0.0
 41
1.0
  0
SPLINE
  5
29C
330
70
100
AcDbEntity
  8
Visible
100
AcDbSpline
210
0.0
220
0.0
230
1.0
 70
    12
 71
     3
 72
     8
 73
     4
 74
     0
 42
0.000000001
 43
0.0000000001
 40
0.0
 40
0.0
 40
0.0
 40
0.0
 40
1.0
 40
1.0
 40
1.0
 40
1.0
 10
34.85406854515896
 20
283.1333519069703
 30
0.0
 41
1.0
 10
34.88940212811576
 20
284.5820517223165
 30
0.0
 41
1.0
 10
36.05542923614121
 20
285.7480774824507
 30
0.0
 41
1.0
 10
37.46879412064118
 20
285.7480774824507
 30
0.0
 41
1.0
  0
SPLINE
  5
29D
330
70
100
AcDbEntity
  8
Visible
100
AcDbSpline
210
0.0
220
0.0
230
1.0
 70
    12
 71
     3
 72
     8
 73
     4
 74
     0
 42
0.000000001
 43
0.0000000001
 40
0.0
 40
0.0
 40
0.0
 40
0.0
 40
1.0
 40
1.0
 40
1.0
 40
1.0
 10
37.50412770359799
 20
280.5186270054346
 30
0.0
 41
1.0
 10
36.05542923614121
 20
280.4832934224778
 30
0.0
 41
1.0
 10
34.85406854515896
 20
281.6846527655689
 30
0.0
 41
1.0
 10
34.85406854515896
 20
283.1333519069703
 30
0.0
 41
1.0
  0
SPLINE
  5
29E
330
70
100
AcDbEntity
  8
Visible
100
AcDbSpline
210
0.0
220
0.0
230
1.0
 70
    12
 71
     3
 72
     8
 73
     4
 74
     0
 42
0.000000001
 43
0.0000000001
 40
0.0
 40
0.0
 40
0.0
 40
0.0
 40
1.0
 40
1.0
 40
1.0
 40
1.0
 10
40.08351969612158
 20
268.0810171001449
 30
0.0
 41
1.0
 10
40.04818611316477
 20
266.7029857986017
 30
0.0
 41
1.0
 10
38.88215900514115
 20
265.5369613863568
 30
0.0
 41
1.0
 10
37.50412770359799
 20
265.5016251076213
 30
0.0
 41
1.0
  0
SPLINE
  5
29F
330
70
100
AcDbEntity
  8
Visible
100
AcDbSpline
210
0.0
220
0.0
230
1.0
 70
    12
 71
     3
 72
     8
 73
     4
 74
     0
 42
0.000000001
 43
0.0000000001
 40
0.0
 40
0.0
 40
0.0
 40
0.0
 40
1.0
 40
1.0
 40
1.0
 40
1.0
 10
37.46879412064118
 20
270.7310762585839
 30
0.0
 41
1.0
 10
38.91749258809796
 20
270.7310762585839
 30
0.0
 41
1.0
 10
40.08351969612158
 20
269.5297155676017
 30
0.0
 41
1.0
 10
40.08351969612158
 20
268.0810171001449
 30
0.0
 41
1.0
  0
SPLINE
  5
2A0
330
70
100
AcDbEntity
  8
Visible
100
AcDbSpline
210
0.0
220
0.0
230
1.0
 70
    12
 71
     3
 72
     8
 73
     4
 74
     0
 42
0.000000001
 43
0.0000000001
 40
0.0
 40
0.0
 40
0.0
 40
0.0
 40
1.0
 40
1.0
 40
1.0
 40
1.0
 10
34.85406854515896
 20
268.1163506831017
 30
0.0
 41
1.0
 10
34.88940212811576
 20
269.5650491505585
 30
0.0
 41
1.0
 10
36.05542923614121
 20
270.7310762585839
 30
0.0
 41
1.0
 10
37.46879412064118
 20
270.7310762585839
 30
0.0
 41
1.0
  0
SPLINE
  5
2A1
330
70
100
AcDbEntity
  8
Visible
100
AcDbSpline
210
0.0
220
0.0
230
1.0
 70
    12
 71
     3
 72
     8
 73
     4
 74
     0
 42
0.000000001
 43
0.0000000001
 40
0.0
 40
0.0
 40
0.0
 40
0.0
 40
1.0
 40
1.0
 40
1.0
 40
1.0
 10
37.50412770359799
 20
265.5016251076213
 30
0.0
 41
1.0
 10
36.05542923614121
 20
265.4662915246645
 30
0.0
 41
1.0
 10
34.85406854515896
 20
266.6676522156449
 30
0.0
 41
1.0
 10
34.85406854515896
 20
268.1163506831017
 30
0.0
 41
1.0
  0
SPLINE
  5
2A2
330
70
100
AcDbEntity
  8
Visible
100
AcDbSpline
210
0.0
220
0.0
230
1.0
 70
    12
 71
     3
 72
     8
 73
     4
 74
     0
 42
0.000000001
 43
0.0000000001
 40
0.0
 40
0.0
 40
0.0
 40
0.0
 40
1.0
 40
1.0
 40
1.0
 40
1.0
 10
12.80557580780441
 20
163.0680099558867
 30
0.0
 41
1.0
 10
12.84091006470589
 20
164.4460385616494
 30
0.0
 41
1.0
 10
14.00693582484018
 20
165.612071061234
 30
0.0
 41
1.0
 10
15.38496645243867
 20
165.6473965568511
 30
0.0
 41
1.0
  0
SPLINE
  5
2A3
330
70
100
AcDbEntity
  8
Visible
100
AcDbSpline
210
0.0
220
0.0
230
1.0
 70
    12
 71
     3
 72
     8
 73
     4
 74
     0
 42
0.000000001
 43
0.0000000001
 40
0.0
 40
0.0
 40
0.0
 40
0.0
 40
1.0
 40
1.0
 40
1.0
 40
1.0
 10
15.42030070934015
 20
160.4179507974495
 30
0.0
 41
1.0
 10
13.9716015679387
 20
160.4179507974495
 30
0.0
 41
1.0
 10
12.80557580780441
 20
161.6193087926494
 30
0.0
 41
1.0
 10
12.80557580780441
 20
163.0680099558867
 30
0.0
 41
1.0
  0
SPLINE
  5
2A4
330
70
100
AcDbEntity
  8
Visible
100
AcDbSpline
210
0.0
220
0.0
230
1.0
 70
    12
 71
     3
 72
     8
 73
     4
 74
     0
 42
0.000000001
 43
0.0000000001
 40
0.0
 40
0.0
 40
0.0
 40
0.0
 40
1.0
 40
1.0
 40
1.0
 40
1.0
 10
18.03502561087589
 20
163.0326736771494
 30
0.0
 41
1.0
 10
17.99969202791908
 20
161.583972513914
 30
0.0
 41
1.0
 10
16.83366626778479
 20
160.4179507974495
 30
0.0
 41
1.0
 10
15.42030070934015
 20
160.4179507974495
 30
0.0
 41
1.0
  0
SPLINE
  5
2A5
330
70
100
AcDbEntity
  8
Visible
100
AcDbSpline
210
0.0
220
0.0
230
1.0
 70
    12
 71
     3
 72
     8
 73
     4
 74
     0
 42
0.000000001
 43
0.0000000001
 40
0.0
 40
0.0
 40
0.0
 40
0.0
 40
1.0
 40
1.0
 40
1.0
 40
1.0
 10
15.38496645243867
 20
165.6473965568511
 30
0.0
 41
1.0
 10
16.83366491989545
 20
165.6827328355884
 30
0.0
 41
1.0
 10
18.03502561087589
 20
164.4813748403867
 30
0.0
 41
1.0
 10
18.03502561087589
 20
163.0326736771494
 30
0.0
 41
1.0
  0
SPLINE
  5
2A6
330
70
100
AcDbEntity
  8
Visible
100
AcDbSpline
210
0.0
220
0.0
230
1.0
 70
    12
 71
     3
 72
     8
 73
     4
 74
     0
 42
0.000000001
 43
0.0000000001
 40
0.0
 40
0.0
 40
0.0
 40
0.0
 40
1.0
 40
1.0
 40
1.0
 40
1.0
 10
40.08351969612158
 20
162.9266648409411
 30
0.0
 41
1.0
 10
40.04818611316477
 20
161.5486362351785
 30
0.0
 41
1.0
 10
38.88215900514115
 20
160.3826037355938
 30
0.0
 41
1.0
 10
37.50412770359799
 20
160.3472782399767
 30
0.0
 41
1.0
  0
SPLINE
  5
2A7
330
70
100
AcDbEntity
  8
Visible
100
AcDbSpline
210
0.0
220
0.0
230
1.0
 70
    12
 71
     3
 72
     8
 73
     4
 74
     0
 42
0.000000001
 43
0.0000000001
 40
0.0
 40
0.0
 40
0.0
 40
0.0
 40
1.0
 40
1.0
 40
1.0
 40
1.0
 10
37.46879412064118
 20
165.5767239993783
 30
0.0
 41
1.0
 10
38.91749258809796
 20
165.5767239993783
 30
0.0
 41
1.0
 10
40.08351969612158
 20
164.3753660041784
 30
0.0
 41
1.0
 10
40.08351969612158
 20
162.9266648409411
 30
0.0
 41
1.0
  0
SPLINE
  5
2A8
330
70
100
AcDbEntity
  8
Visible
100
AcDbSpline
210
0.0
220
0.0
230
1.0
 70
    12
 71
     3
 72
     8
 73
     4
 74
     0
 42
0.000000001
 43
0.0000000001
 40
0.0
 40
0.0
 40
0.0
 40
0.0
 40
1.0
 40
1.0
 40
1.0
 40
1.0
 10
34.85406854515896
 20
162.9620011196784
 30
0.0
 41
1.0
 10
34.88940212811576
 20
164.4107022829139
 30
0.0
 41
1.0
 10
36.05542923614121
 20
165.5767239993783
 30
0.0
 41
1.0
 10
37.46879412064118
 20
165.5767239993783
 30
0.0
 41
1.0
  0
SPLINE
  5
2A9
330
70
100
AcDbEntity
  8
Visible
100
AcDbSpline
210
0.0
220
0.0
230
1.0
 70
    12
 71
     3
 72
     8
 73
     4
 74
     0
 42
0.000000001
 43
0.0000000001
 40
0.0
 40
0.0
 40
0.0
 40
0.0
 40
1.0
 40
1.0
 40
1.0
 40
1.0
 10
37.50412770359799
 20
160.3472782399767
 30
0.0
 41
1.0
 10
36.05542923614121
 20
160.3119419612412
 30
0.0
 41
1.0
 10
34.85406854515896
 20
161.5132999564412
 30
0.0
 41
1.0
 10
34.85406854515896
 20
162.9620011196784
 30
0.0
 41
1.0
  0
SPLINE
  5
2AA
330
70
100
AcDbEntity
  8
Visible
100
AcDbSpline
210
0.0
220
0.0
230
1.0
 70
    12
 71
     3
 72
     8
 73
     4
 74
     0
 42
0.000000001
 43
0.0000000001
 40
0.0
 40
0.0
 40
0.0
 40
0.0
 40
1.0
 40
1.0
 40
1.0
 40
1.0
 10
40.08351969612158
 20
177.9436667387544
 30
0.0
 41
1.0
 10
40.04818611316477
 20
176.56563813299
 30
0.0
 41
1.0
 10
38.88215900514115
 20
175.3996056334072
 30
0.0
 41
1.0
 10
37.50412770359799
 20
175.36428013779
 30
0.0
 41
1.0
  0
SPLINE
  5
2AB
330
70
100
AcDbEntity
  8
Visible
100
AcDbSpline
210
0.0
220
0.0
230
1.0
 70
    12
 71
     3
 72
     8
 73
     4
 74
     0
 42
0.000000001
 43
0.0000000001
 40
0.0
 40
0.0
 40
0.0
 40
0.0
 40
1.0
 40
1.0
 40
1.0
 40
1.0
 10
37.46879412064118
 20
180.5937258971917
 30
0.0
 41
1.0
 10
38.91749258809796
 20
180.5937258971917
 30
0.0
 41
1.0
 10
40.08351969612158
 20
179.3923679019899
 30
0.0
 41
1.0
 10
40.08351969612158
 20
177.9436667387544
 30
0.0
 41
1.0
  0
SPLINE
  5
2AC
330
70
100
AcDbEntity
  8
Visible
100
AcDbSpline
210
0.0
220
0.0
230
1.0
 70
    12
 71
     3
 72
     8
 73
     4
 74
     0
 42
0.000000001
 43
0.0000000001
 40
0.0
 40
0.0
 40
0.0
 40
0.0
 40
1.0
 40
1.0
 40
1.0
 40
1.0
 10
34.85406854515896
 20
177.9790030174899
 30
0.0
 41
1.0
 10
34.88940212811576
 20
179.4277041807272
 30
0.0
 41
1.0
 10
36.05542923614121
 20
180.5937258971917
 30
0.0
 41
1.0
 10
37.46879412064118
 20
180.5937258971917
 30
0.0
 41
1.0
  0
SPLINE
  5
2AD
330
70
100
AcDbEntity
  8
Visible
100
AcDbSpline
210
0.0
220
0.0
230
1.0
 70
    12
 71
     3
 72
     8
 73
     4
 74
     0
 42
0.000000001
 43
0.0000000001
 40
0.0
 40
0.0
 40
0.0
 40
0.0
 40
1.0
 40
1.0
 40
1.0
 40
1.0
 10
37.50412770359799
 20
175.36428013779
 30
0.0
 41
1.0
 10
36.05542923614121
 20
175.3289438590527
 30
0.0
 41
1.0
 10
34.85406854515896
 20
176.5303018542545
 30
0.0
 41
1.0
 10
34.85406854515896
 20
177.9790030174899
 30
0.0
 41
1.0
  0
SPLINE
  5
2AE
330
70
100
AcDbEntity
  8
Visible
100
AcDbSpline
210
0.0
220
0.0
230
1.0
 70
    12
 71
     3
 72
     8
 73
     4
 74
     0
 42
0.000000001
 43
0.0000000001
 40
0.0
 40
0.0
 40
0.0
 40
0.0
 40
1.0
 40
1.0
 40
1.0
 40
1.0
 10
40.08351969612158
 20
192.9606686365678
 30
0.0
 41
1.0
 10
40.04818611316477
 20
191.5826400308033
 30
0.0
 41
1.0
 10
38.88215900514115
 20
190.4166075312205
 30
0.0
 41
1.0
 10
37.50412770359799
 20
190.3812820356015
 30
0.0
 41
1.0
  0
SPLINE
  5
2AF
330
70
100
AcDbEntity
  8
Visible
100
AcDbSpline
210
0.0
220
0.0
230
1.0
 70
    12
 71
     3
 72
     8
 73
     4
 74
     0
 42
0.000000001
 43
0.0000000001
 40
0.0
 40
0.0
 40
0.0
 40
0.0
 40
1.0
 40
1.0
 40
1.0
 40
1.0
 10
37.46879412064118
 20
195.610727795005
 30
0.0
 41
1.0
 10
38.91749258809796
 20
195.610727795005
 30
0.0
 41
1.0
 10
40.08351969612158
 20
194.4093697998032
 30
0.0
 41
1.0
 10
40.08351969612158
 20
192.9606686365678
 30
0.0
 41
1.0
  0
SPLINE
  5
2B0
330
70
100
AcDbEntity
  8
Visible
100
AcDbSpline
210
0.0
220
0.0
230
1.0
 70
    12
 71
     3
 72
     8
 73
     4
 74
     0
 42
0.000000001
 43
0.0000000001
 40
0.0
 40
0.0
 40
0.0
 40
0.0
 40
1.0
 40
1.0
 40
1.0
 40
1.0
 10
34.85406854515896
 20
192.9960049153033
 30
0.0
 41
1.0
 10
34.88940212811576
 20
194.4447060785387
 30
0.0
 41
1.0
 10
36.05542923614121
 20
195.610727795005
 30
0.0
 41
1.0
 10
37.46879412064118
 20
195.610727795005
 30
0.0
 41
1.0
  0
SPLINE
  5
2B1
330
70
100
AcDbEntity
  8
Visible
100
AcDbSpline
210
0.0
220
0.0
230
1.0
 70
    12
 71
     3
 72
     8
 73
     4
 74
     0
 42
0.000000001
 43
0.0000000001
 40
0.0
 40
0.0
 40
0.0
 40
0.0
 40
1.0
 40
1.0
 40
1.0
 40
1.0
 10
37.50412770359799
 20
190.3812820356015
 30
0.0
 41
1.0
 10
36.05542923614121
 20
190.345945756866
 30
0.0
 41
1.0
 10
34.85406854515896
 20
191.5473037520678
 30
0.0
 41
1.0
 10
34.85406854515896
 20
192.9960049153033
 30
0.0
 41
1.0
  0
SPLINE
  5
2B2
330
70
100
AcDbEntity
  8
Visible
100
AcDbSpline
210
0.0
220
0.0
230
1.0
 70
    12
 71
     3
 72
     8
 73
     4
 74
     0
 42
0.000000001
 43
0.0000000001
 40
0.0
 40
0.0
 40
0.0
 40
0.0
 40
1.0
 40
1.0
 40
1.0
 40
1.0
 10
40.08351969612158
 20
207.9776759259384
 30
0.0
 41
1.0
 10
40.04818611316477
 20
206.5996473201758
 30
0.0
 41
1.0
 10
38.88215900514115
 20
205.4336202121504
 30
0.0
 41
1.0
 10
37.50412770359799
 20
205.3982839334149
 30
0.0
 41
1.0
  0
SPLINE
  5
2B3
330
70
100
AcDbEntity
  8
Visible
100
AcDbSpline
210
0.0
220
0.0
230
1.0
 70
    12
 71
     3
 72
     8
 73
     4
 74
     0
 42
0.000000001
 43
0.0000000001
 40
0.0
 40
0.0
 40
0.0
 40
0.0
 40
1.0
 40
1.0
 40
1.0
 40
1.0
 10
37.46879412064118
 20
210.6277350843757
 30
0.0
 41
1.0
 10
38.91749258809796
 20
210.6277350843757
 30
0.0
 41
1.0
 10
40.08351969612158
 20
209.4263770891757
 30
0.0
 41
1.0
 10
40.08351969612158
 20
207.9776759259384
 30
0.0
 41
1.0
  0
SPLINE
  5
2B4
330
70
100
AcDbEntity
  8
Visible
100
AcDbSpline
210
0.0
220
0.0
230
1.0
 70
    12
 71
     3
 72
     8
 73
     4
 74
     0
 42
0.000000001
 43
0.0000000001
 40
0.0
 40
0.0
 40
0.0
 40
0.0
 40
1.0
 40
1.0
 40
1.0
 40
1.0
 10
34.85406854515896
 20
208.0130068131166
 30
0.0
 41
1.0
 10
34.88940212811576
 20
209.4617079763521
 30
0.0
 41
1.0
 10
36.05542923614121
 20
210.6277350843757
 30
0.0
 41
1.0
 10
37.46879412064118
 20
210.6277350843757
 30
0.0
 41
1.0
  0
SPLINE
  5
2B5
330
70
100
AcDbEntity
  8
Visible
100
AcDbSpline
210
0.0
220
0.0
230
1.0
 70
    12
 71
     3
 72
     8
 73
     4
 74
     0
 42
0.000000001
 43
0.0000000001
 40
0.0
 40
0.0
 40
0.0
 40
0.0
 40
1.0
 40
1.0
 40
1.0
 40
1.0
 10
37.50412770359799
 20
205.3982839334149
 30
0.0
 41
1.0
 10
36.05542923614121
 20
205.3629476546776
 30
0.0
 41
1.0
 10
34.85406854515896
 20
206.5643110414385
 30
0.0
 41
1.0
 10
34.85406854515896
 20
208.0130068131166
 30
0.0
 41
1.0
  0
SPLINE
  5
2B6
330
70
100
AcDbEntity
  8
Visible
100
AcDbSpline
210
0.0
220
0.0
230
1.0
 70
    12
 71
     3
 72
     8
 73
     4
 74
     0
 42
0.000000001
 43
0.0000000001
 40
0.0
 40
0.0
 40
0.0
 40
0.0
 40
1.0
 40
1.0
 40
1.0
 40
1.0
 10
40.08351969612158
 20
223.0300087109281
 30
0.0
 41
1.0
 10
40.04818611316477
 20
221.6519801051636
 30
0.0
 41
1.0
 10
38.88215900514115
 20
220.48595299714
 30
0.0
 41
1.0
 10
37.50412770359799
 20
220.4506167184045
 30
0.0
 41
1.0
  0
SPLINE
  5
2B7
330
70
100
AcDbEntity
  8
Visible
100
AcDbSpline
210
0.0
220
0.0
230
1.0
 70
    12
 71
     3
 72
     8
 73
     4
 74
     0
 42
0.000000001
 43
0.0000000001
 40
0.0
 40
0.0
 40
0.0
 40
0.0
 40
1.0
 40
1.0
 40
1.0
 40
1.0
 10
37.46879412064118
 20
225.6800678693653
 30
0.0
 41
1.0
 10
38.91749258809796
 20
225.6800678693653
 30
0.0
 41
1.0
 10
40.08351969612158
 20
224.4787098741654
 30
0.0
 41
1.0
 10
40.08351969612158
 20
223.0300087109281
 30
0.0
 41
1.0
  0
SPLINE
  5
2B8
330
70
100
AcDbEntity
  8
Visible
100
AcDbSpline
210
0.0
220
0.0
230
1.0
 70
    12
 71
     3
 72
     8
 73
     4
 74
     0
 42
0.000000001
 43
0.0000000001
 40
0.0
 40
0.0
 40
0.0
 40
0.0
 40
1.0
 40
1.0
 40
1.0
 40
1.0
 10
34.85406854515896
 20
223.0653395981062
 30
0.0
 41
1.0
 10
34.88940212811576
 20
224.5140461529008
 30
0.0
 41
1.0
 10
36.05542923614121
 20
225.6800678693653
 30
0.0
 41
1.0
 10
37.46879412064118
 20
225.6800678693653
 30
0.0
 41
1.0
  0
SPLINE
  5
2B9
330
70
100
AcDbEntity
  8
Visible
100
AcDbSpline
210
0.0
220
0.0
230
1.0
 70
    12
 71
     3
 72
     8
 73
     4
 74
     0
 42
0.000000001
 43
0.0000000001
 40
0.0
 40
0.0
 40
0.0
 40
0.0
 40
1.0
 40
1.0
 40
1.0
 40
1.0
 10
37.50412770359799
 20
220.4506167184045
 30
0.0
 41
1.0
 10
36.05542923614121
 20
220.4152804396672
 30
0.0
 41
1.0
 10
34.85406854515896
 20
221.6166438264281
 30
0.0
 41
1.0
 10
34.85406854515896
 20
223.0653395981062
 30
0.0
 41
1.0
  0
SPLINE
  5
2BA
330
70
100
AcDbEntity
  8
Visible
100
AcDbSpline
210
0.0
220
0.0
230
1.0
 70
    12
 71
     3
 72
     8
 73
     4
 74
     0
 42
0.000000001
 43
0.0000000001
 40
0.0
 40
0.0
 40
0.0
 40
0.0
 40
1.0
 40
1.0
 40
1.0
 40
1.0
 10
40.08351969612158
 20
238.0470106087414
 30
0.0
 41
1.0
 10
40.04818611316477
 20
236.6689820029769
 30
0.0
 41
1.0
 10
38.88215900514115
 20
235.5029548949533
 30
0.0
 41
1.0
 10
37.50412770359799
 20
235.467618616216
 30
0.0
 41
1.0
  0
SPLINE
  5
2BB
330
70
100
AcDbEntity
  8
Visible
100
AcDbSpline
210
0.0
220
0.0
230
1.0
 70
    12
 71
     3
 72
     8
 73
     4
 74
     0
 42
0.000000001
 43
0.0000000001
 40
0.0
 40
0.0
 40
0.0
 40
0.0
 40
1.0
 40
1.0
 40
1.0
 40
1.0
 10
37.46879412064118
 20
240.6970697671786
 30
0.0
 41
1.0
 10
38.91749258809796
 20
240.6970697671786
 30
0.0
 41
1.0
 10
40.08351969612158
 20
239.4957117719769
 30
0.0
 41
1.0
 10
40.08351969612158
 20
238.0470106087414
 30
0.0
 41
1.0
  0
SPLINE
  5
2BC
330
70
100
AcDbEntity
  8
Visible
100
AcDbSpline
210
0.0
220
0.0
230
1.0
 70
    12
 71
     3
 72
     8
 73
     4
 74
     0
 42
0.000000001
 43
0.0000000001
 40
0.0
 40
0.0
 40
0.0
 40
0.0
 40
1.0
 40
1.0
 40
1.0
 40
1.0
 10
34.85406854515896
 20
238.0823414959177
 30
0.0
 41
1.0
 10
34.88940212811576
 20
239.5310480507141
 30
0.0
 41
1.0
 10
36.05542923614121
 20
240.6970697671786
 30
0.0
 41
1.0
 10
37.46879412064118
 20
240.6970697671786
 30
0.0
 41
1.0
  0
SPLINE
  5
2BD
330
70
100
AcDbEntity
  8
Visible
100
AcDbSpline
210
0.0
220
0.0
230
1.0
 70
    12
 71
     3
 72
     8
 73
     4
 74
     0
 42
0.000000001
 43
0.0000000001
 40
0.0
 40
0.0
 40
0.0
 40
0.0
 40
1.0
 40
1.0
 40
1.0
 40
1.0
 10
37.50412770359799
 20
235.467618616216
 30
0.0
 41
1.0
 10
36.05542923614121
 20
235.4322823374805
 30
0.0
 41
1.0
 10
34.85406854515896
 20
236.6336457242415
 30
0.0
 41
1.0
 10
34.85406854515896
 20
238.0823414959177
 30
0.0
 41
1.0
  0
SPLINE
  5
2BE
330
70
100
AcDbEntity
  8
Visible
100
AcDbSpline
210
0.0
220
0.0
230
1.0
 70
    12
 71
     3
 72
     8
 73
     4
 74
     0
 42
0.000000001
 43
0.0000000001
 40
0.0
 40
0.0
 40
0.0
 40
0.0
 40
1.0
 40
1.0
 40
1.0
 40
1.0
 10
40.08351969612158
 20
253.0640152023334
 30
0.0
 41
1.0
 10
40.04818611316477
 20
251.6859839007902
 30
0.0
 41
1.0
 10
38.88215900514115
 20
250.5199594885453
 30
0.0
 41
1.0
 10
37.50412770359799
 20
250.484623209808
 30
0.0
 41
1.0
  0
SPLINE
  5
2BF
330
70
100
AcDbEntity
  8
Visible
100
AcDbSpline
210
0.0
220
0.0
230
1.0
 70
    12
 71
     3
 72
     8
 73
     4
 74
     0
 42
0.000000001
 43
0.0000000001
 40
0.0
 40
0.0
 40
0.0
 40
0.0
 40
1.0
 40
1.0
 40
1.0
 40
1.0
 10
37.46879412064118
 20
255.7140743607706
 30
0.0
 41
1.0
 10
38.91749258809796
 20
255.7140743607706
 30
0.0
 41
1.0
 10
40.08351969612158
 20
254.5127136697902
 30
0.0
 41
1.0
 10
40.08351969612158
 20
253.0640152023334
 30
0.0
 41
1.0
  0
SPLINE
  5
2C0
330
70
100
AcDbEntity
  8
Visible
100
AcDbSpline
210
0.0
220
0.0
230
1.0
 70
    12
 71
     3
 72
     8
 73
     4
 74
     0
 42
0.000000001
 43
0.0000000001
 40
0.0
 40
0.0
 40
0.0
 40
0.0
 40
1.0
 40
1.0
 40
1.0
 40
1.0
 10
34.85406854515896
 20
253.0993487852902
 30
0.0
 41
1.0
 10
34.88940212811576
 20
254.548047252747
 30
0.0
 41
1.0
 10
36.05542923614121
 20
255.7140743607706
 30
0.0
 41
1.0
 10
37.46879412064118
 20
255.7140743607706
 30
0.0
 41
1.0
  0
SPLINE
  5
2C1
330
70
100
AcDbEntity
  8
Visible
100
AcDbSpline
210
0.0
220
0.0
230
1.0
 70
    12
 71
     3
 72
     8
 73
     4
 74
     0
 42
0.000000001
 43
0.0000000001
 40
0.0
 40
0.0
 40
0.0
 40
0.0
 40
1.0
 40
1.0
 40
1.0
 40
1.0
 10
37.50412770359799
 20
250.484623209808
 30
0.0
 41
1.0
 10
36.05542923614121
 20
250.449289626853
 30
0.0
 41
1.0
 10
34.85406854515896
 20
251.6506503178334
 30
0.0
 41
1.0
 10
34.85406854515896
 20
253.0993487852902
 30
0.0
 41
1.0
  0
SPLINE
  5
2C2
330
70
100
AcDbEntity
  8
Visible
100
AcDbSpline
210
0.0
220
0.0
230
1.0
 70
    12
 71
     3
 72
     8
 73
     4
 74
     0
 42
0.000000001
 43
0.0000000001
 40
0.0
 40
0.0
 40
0.0
 40
0.0
 40
1.0
 40
1.0
 40
1.0
 40
1.0
 10
12.80557580780441
 20
283.2746896085209
 30
0.0
 41
1.0
 10
12.84091006470589
 20
284.6527202361194
 30
0.0
 41
1.0
 10
14.00693582484018
 20
285.8187466701984
 30
0.0
 41
1.0
 10
15.38496645243867
 20
285.8540802531552
 30
0.0
 41
1.0
  0
SPLINE
  5
2C3
330
70
100
AcDbEntity
  8
Visible
100
AcDbSpline
210
0.0
220
0.0
230
1.0
 70
    12
 71
     3
 72
     8
 73
     4
 74
     0
 42
0.000000001
 43
0.0000000001
 40
0.0
 40
0.0
 40
0.0
 40
0.0
 40
1.0
 40
1.0
 40
1.0
 40
1.0
 10
15.42030070934015
 20
280.6246304500837
 30
0.0
 41
1.0
 10
13.9716015679387
 20
280.6246304500837
 30
0.0
 41
1.0
 10
12.80557580780441
 20
281.8259911410642
 30
0.0
 41
1.0
 10
12.80557580780441
 20
283.2746896085209
 30
0.0
 41
1.0
  0
SPLINE
  5
2C4
330
70
100
AcDbEntity
  8
Visible
100
AcDbSpline
210
0.0
220
0.0
230
1.0
 70
    12
 71
     3
 72
     8
 73
     4
 74
     0
 42
0.000000001
 43
0.0000000001
 40
0.0
 40
0.0
 40
0.0
 40
0.0
 40
1.0
 40
1.0
 40
1.0
 40
1.0
 10
18.03502561087589
 20
283.2393553516194
 30
0.0
 41
1.0
 10
17.99969202791908
 20
281.790656210218
 30
0.0
 41
1.0
 10
16.83366626778479
 20
280.6246304500837
 30
0.0
 41
1.0
 10
15.42030070934015
 20
280.6246304500837
 30
0.0
 41
1.0
  0
SPLINE
  5
2C5
330
70
100
AcDbEntity
  8
Visible
100
AcDbSpline
210
0.0
220
0.0
230
1.0
 70
    12
 71
     3
 72
     8
 73
     4
 74
     0
 42
0.000000001
 43
0.0000000001
 40
0.0
 40
0.0
 40
0.0
 40
0.0
 40
1.0
 40
1.0
 40
1.0
 40
1.0
 10
15.38496645243867
 20
285.8540802531552
 30
0.0
 41
1.0
 10
16.83366491989545
 20
285.8894145100567
 30
0.0
 41
1.0
 10
18.03502561087589
 20
284.6880544930209
 30
0.0
 41
1.0
 10
18.03502561087589
 20
283.2393553516194
 30
0.0
 41
1.0
  0
LINE
  5
2C6
330
70
100
AcDbEntity
  8
Visible
100
AcDbLine
 10
19.717289
 20
149.075693
 30
0.0
 11
19.731063
 21
153.139119
 31
0.0
  0
LINE
  5
2C7
330
70
100
AcDbEntity
  8
Visible
100
AcDbLine
 10
19.709742
 20
161.866645
 30
0.0
 11
22.506493
 21
161.866645
 31
0.0
  0
LINE
  5
2C8
330
70
100
AcDbEntity
  8
Visible
100
AcDbLine
 10
19.695728
 20
157.732555
 30
0.0
 11
19.709742
 21
161.866645
 31
0.0
  0
SPLINE
  5
2C9
330
70
100
AcDbEntity
  8
Visible
100
AcDbSpline
210
0.0
220
0.0
230
1.0
 70
    12
 71
     3
 72
     8
 73
     4
 74
     0
 42
0.000000001
 43
0.0000000001
 40
0.0
 40
0.0
 40
0.0
 40
0.0
 40
1.0
 40
1.0
 40
1.0
 40
1.0
 10
19.05971434340426
 20
157.4145504178868
 30
0.0
 41
1.0
 10
19.34238705072676
 20
157.2025435285868
 30
0.0
 41
1.0
 10
19.6957282718522
 20
157.4145504178868
 30
0.0
 41
1.0
 10
19.6957282718522
 20
157.732555360275
 30
0.0
 41
1.0
  0
SPLINE
  5
2CA
330
70
100
AcDbEntity
  8
Visible
100
AcDbSpline
210
0.0
220
0.0
230
1.0
 70
    12
 71
     3
 72
     8
 73
     4
 74
     0
 42
0.000000001
 43
0.0000000001
 40
0.0
 40
0.0
 40
0.0
 40
0.0
 40
1.0
 40
1.0
 40
1.0
 40
1.0
 10
17.25767465482204
 20
158.015234807046
 30
0.0
 41
1.0
 10
17.50501377918772
 20
158.015234807046
 30
0.0
 41
1.0
 10
18.28236473524157
 20
157.9798985283105
 30
0.0
 41
1.0
 10
19.05971434340426
 20
157.4145504178868
 30
0.0
 41
1.0
  0
LINE
  5
2CB
330
70
100
AcDbEntity
  8
Visible
100
AcDbLine
 10
15.384966
 20
158.015235
 30
0.0
 11
17.257675
 21
158.015235
 31
0.0
  0
SPLINE
  5
2CC
330
70
100
AcDbEntity
  8
Visible
100
AcDbSpline
210
0.0
220
0.0
230
1.0
 70
    12
 71
     3
 72
     8
 73
     4
 74
     0
 42
0.000000001
 43
0.0000000001
 40
0.0
 40
0.0
 40
0.0
 40
0.0
 40
1.0
 40
1.0
 40
1.0
 40
1.0
 10
10.40285442584172
 20
163.5980217875731
 30
0.0
 41
1.0
 10
10.08484746161775
 20
160.5946214080122
 30
0.0
 41
1.0
 10
12.41689965583282
 20
158.015234807046
 30
0.0
 41
1.0
 10
15.384965778494
 20
158.015234807046
 30
0.0
 41
1.0
  0
SPLINE
  5
2CD
330
70
100
AcDbEntity
  8
Visible
100
AcDbSpline
210
0.0
220
0.0
230
1.0
 70
    12
 71
     3
 72
     8
 73
     4
 74
     0
 42
0.000000001
 43
0.0000000001
 40
0.0
 40
0.0
 40
0.0
 40
0.0
 40
1.0
 40
1.0
 40
1.0
 40
1.0
 10
15.52630213215525
 20
168.050123330373
 30
0.0
 41
1.0
 10
12.94691148751917
 20
168.050123330373
 30
0.0
 41
1.0
 10
10.68552747013564
 20
166.1774191716576
 30
0.0
 41
1.0
 10
10.40285442584172
 20
163.5980217875731
 30
0.0
 41
1.0
  0
LINE
  5
2CE
330
70
100
AcDbEntity
  8
Visible
100
AcDbLine
 10
17.293008
 20
168.050123
 30
0.0
 11
15.526302
 21
168.050123
 31
0.0
  0
SPLINE
  5
2CF
330
70
100
AcDbEntity
  8
Visible
100
AcDbSpline
210
0.0
220
0.0
230
1.0
 70
    12
 71
     3
 72
     8
 73
     4
 74
     0
 42
0.000000001
 43
0.0000000001
 40
0.0
 40
0.0
 40
0.0
 40
0.0
 40
1.0
 40
1.0
 40
1.0
 40
1.0
 10
18.17636129059247
 20
168.1914576621984
 30
0.0
 41
1.0
 10
17.85835365242383
 20
168.0854596091085
 30
0.0
 41
1.0
 10
17.54034736214453
 20
168.050123330373
 30
0.0
 41
1.0
 10
17.29300823777885
 20
168.050123330373
 30
0.0
 41
1.0
  0
SPLINE
  5
2D0
330
70
100
AcDbEntity
  8
Visible
100
AcDbSpline
210
0.0
220
0.0
230
1.0
 70
    12
 71
     3
 72
     8
 73
     4
 74
     0
 42
0.000000001
 43
0.0000000001
 40
0.0
 40
0.0
 40
0.0
 40
0.0
 40
1.0
 40
1.0
 40
1.0
 40
1.0
 10
18.9537122466445
 20
168.5801351620594
 30
0.0
 41
1.0
 10
18.74170805312497
 20
168.4388008302339
 30
0.0
 41
1.0
 10
18.45903399791314
 20
168.2974664984067
 30
0.0
 41
1.0
 10
18.17636129059247
 20
168.1914576621984
 30
0.0
 41
1.0
  0
SPLINE
  5
2D1
330
70
100
AcDbEntity
  8
Visible
100
AcDbSpline
210
0.0
220
0.0
230
1.0
 70
    12
 71
     3
 72
     8
 73
     4
 74
     0
 42
0.000000001
 43
0.0000000001
 40
0.0
 40
0.0
 40
0.0
 40
0.0
 40
1.0
 40
1.0
 40
1.0
 40
1.0
 10
19.73106320269835
 20
168.1561213834629
 30
0.0
 41
1.0
 10
19.73106320269835
 20
168.5447988833239
 30
0.0
 41
1.0
 10
19.27171988481314
 20
168.792131268241
 30
0.0
 41
1.0
 10
18.9537122466445
 20
168.5801351620594
 30
0.0
 41
1.0
  0
LINE
  5
2D2
330
70
100
AcDbEntity
  8
Visible
100
AcDbLine
 10
19.718726
 20
164.516705
 30
0.0
 11
19.731063
 21
168.156121
 31
0.0
  0
LINE
  5
2D3
330
70
100
AcDbEntity
  8
Visible
100
AcDbLine
 10
19.708904
 20
176.636309
 30
0.0
 11
22.506493
 21
176.636309
 31
0.0
  0
LINE
  5
2D4
330
70
100
AcDbEntity
  8
Visible
100
AcDbLine
 10
19.695728
 20
172.749557
 30
0.0
 11
19.708904
 21
176.636309
 31
0.0
  0
SPLINE
  5
2D5
330
70
100
AcDbEntity
  8
Visible
100
AcDbSpline
210
0.0
220
0.0
230
1.0
 70
    12
 71
     3
 72
     8
 73
     4
 74
     0
 42
0.000000001
 43
0.0000000001
 40
0.0
 40
0.0
 40
0.0
 40
0.0
 40
1.0
 40
1.0
 40
1.0
 40
1.0
 10
19.05971434340426
 20
172.4315523156983
 30
0.0
 41
1.0
 10
19.34238705072676
 20
172.2195454264001
 30
0.0
 41
1.0
 10
19.6957282718522
 20
172.4315523156983
 30
0.0
 41
1.0
 10
19.6957282718522
 20
172.7495572580883
 30
0.0
 41
1.0
  0
SPLINE
  5
2D6
330
70
100
AcDbEntity
  8
Visible
100
AcDbSpline
210
0.0
220
0.0
230
1.0
 70
    12
 71
     3
 72
     8
 73
     4
 74
     0
 42
0.000000001
 43
0.0000000001
 40
0.0
 40
0.0
 40
0.0
 40
0.0
 40
1.0
 40
1.0
 40
1.0
 40
1.0
 10
17.25767465482204
 20
173.0322367048593
 30
0.0
 41
1.0
 10
17.50501377918772
 20
173.0322367048593
 30
0.0
 41
1.0
 10
18.28236473524157
 20
172.996900426122
 30
0.0
 41
1.0
 10
19.05971434340426
 20
172.4315523156983
 30
0.0
 41
1.0
  0
LINE
  5
2D7
330
70
100
AcDbEntity
  8
Visible
100
AcDbLine
 10
15.384966
 20
173.032237
 30
0.0
 11
17.257675
 21
173.032237
 31
0.0
  0
SPLINE
  5
2D8
330
70
100
AcDbEntity
  8
Visible
100
AcDbSpline
210
0.0
220
0.0
230
1.0
 70
    12
 71
     3
 72
     8
 73
     4
 74
     0
 42
0.000000001
 43
0.0000000001
 40
0.0
 40
0.0
 40
0.0
 40
0.0
 40
1.0
 40
1.0
 40
1.0
 40
1.0
 10
10.40285442584172
 20
178.6150236853864
 30
0.0
 41
1.0
 10
10.08484746161775
 20
175.6116233058237
 30
0.0
 41
1.0
 10
12.41689965583282
 20
173.0322367048593
 30
0.0
 41
1.0
 10
15.384965778494
 20
173.0322367048593
 30
0.0
 41
1.0
  0
SPLINE
  5
2D9
330
70
100
AcDbEntity
  8
Visible
100
AcDbSpline
210
0.0
220
0.0
230
1.0
 70
    12
 71
     3
 72
     8
 73
     4
 74
     0
 42
0.000000001
 43
0.0000000001
 40
0.0
 40
0.0
 40
0.0
 40
0.0
 40
1.0
 40
1.0
 40
1.0
 40
1.0
 10
15.52630213215525
 20
183.0671252281845
 30
0.0
 41
1.0
 10
12.94691148751917
 20
183.0671252281845
 30
0.0
 41
1.0
 10
10.68552747013564
 20
181.1944210694692
 30
0.0
 41
1.0
 10
10.40285442584172
 20
178.6150236853864
 30
0.0
 41
1.0
  0
LINE
  5
2DA
330
70
100
AcDbEntity
  8
Visible
100
AcDbLine
 10
17.293008
 20
183.067125
 30
0.0
 11
15.526302
 21
183.067125
 31
0.0
  0
SPLINE
  5
2DB
330
70
100
AcDbEntity
  8
Visible
100
AcDbSpline
210
0.0
220
0.0
230
1.0
 70
    12
 71
     3
 72
     8
 73
     4
 74
     0
 42
0.000000001
 43
0.0000000001
 40
0.0
 40
0.0
 40
0.0
 40
0.0
 40
1.0
 40
1.0
 40
1.0
 40
1.0
 10
18.17636129059247
 20
183.2084595600117
 30
0.0
 41
1.0
 10
17.85835365242383
 20
183.1024615069218
 30
0.0
 41
1.0
 10
17.54034736214453
 20
183.0671252281845
 30
0.0
 41
1.0
 10
17.29300823777885
 20
183.0671252281845
 30
0.0
 41
1.0
  0
SPLINE
  5
2DC
330
70
100
AcDbEntity
  8
Visible
100
AcDbSpline
210
0.0
220
0.0
230
1.0
 70
    12
 71
     3
 72
     8
 73
     4
 74
     0
 42
0.000000001
 43
0.0000000001
 40
0.0
 40
0.0
 40
0.0
 40
0.0
 40
1.0
 40
1.0
 40
1.0
 40
1.0
 10
18.9537122466445
 20
183.5971370598727
 30
0.0
 41
1.0
 10
18.74170805312497
 20
183.4558027280472
 30
0.0
 41
1.0
 10
18.45903399791314
 20
183.31446839622
 30
0.0
 41
1.0
 10
18.17636129059247
 20
183.2084595600117
 30
0.0
 41
1.0
  0
SPLINE
  5
2DD
330
70
100
AcDbEntity
  8
Visible
100
AcDbSpline
210
0.0
220
0.0
230
1.0
 70
    12
 71
     3
 72
     8
 73
     4
 74
     0
 42
0.000000001
 43
0.0000000001
 40
0.0
 40
0.0
 40
0.0
 40
0.0
 40
1.0
 40
1.0
 40
1.0
 40
1.0
 10
19.73106320269835
 20
183.1731232812763
 30
0.0
 41
1.0
 10
19.73106320269835
 20
183.5618007811372
 30
0.0
 41
1.0
 10
19.27171988481314
 20
183.8091331660525
 30
0.0
 41
1.0
 10
18.9537122466445
 20
183.5971370598727
 30
0.0
 41
1.0
  0
LINE
  5
2DE
330
70
100
AcDbEntity
  8
Visible
100
AcDbLine
 10
19.717887
 20
179.286368
 30
0.0
 11
19.731063
 21
183.173123
 31
0.0
  0
LINE
  5
2DF
330
70
100
AcDbEntity
  8
Visible
100
AcDbLine
 10
19.708425
 20
191.511974
 30
0.0
 11
22.506493
 21
191.511974
 31
0.0
  0
LINE
  5
2E0
330
70
100
AcDbEntity
  8
Visible
100
AcDbLine
 10
19.695728
 20
187.766559
 30
0.0
 11
19.708425
 21
191.511974
 31
0.0
  0
SPLINE
  5
2E1
330
70
100
AcDbEntity
  8
Visible
100
AcDbSpline
210
0.0
220
0.0
230
1.0
 70
    12
 71
     3
 72
     8
 73
     4
 74
     0
 42
0.000000001
 43
0.0000000001
 40
0.0
 40
0.0
 40
0.0
 40
0.0
 40
1.0
 40
1.0
 40
1.0
 40
1.0
 10
19.05971434340426
 20
187.4485542135117
 30
0.0
 41
1.0
 10
19.34238705072676
 20
187.2365473242134
 30
0.0
 41
1.0
 10
19.6957282718522
 20
187.4485542135117
 30
0.0
 41
1.0
 10
19.6957282718522
 20
187.7665591558998
 30
0.0
 41
1.0
  0
SPLINE
  5
2E2
330
70
100
AcDbEntity
  8
Visible
100
AcDbSpline
210
0.0
220
0.0
230
1.0
 70
    12
 71
     3
 72
     8
 73
     4
 74
     0
 42
0.000000001
 43
0.0000000001
 40
0.0
 40
0.0
 40
0.0
 40
0.0
 40
1.0
 40
1.0
 40
1.0
 40
1.0
 10
17.25767465482204
 20
188.0492386026708
 30
0.0
 41
1.0
 10
17.50501377918772
 20
188.0492386026708
 30
0.0
 41
1.0
 10
18.28236473524157
 20
188.0139023239353
 30
0.0
 41
1.0
 10
19.05971434340426
 20
187.4485542135117
 30
0.0
 41
1.0
  0
LINE
  5
2E3
330
70
100
AcDbEntity
  8
Visible
100
AcDbLine
 10
15.384966
 20
188.049239
 30
0.0
 11
17.257675
 21
188.049239
 31
0.0
  0
SPLINE
  5
2E4
330
70
100
AcDbEntity
  8
Visible
100
AcDbSpline
210
0.0
220
0.0
230
1.0
 70
    12
 71
     3
 72
     8
 73
     4
 74
     0
 42
0.000000001
 43
0.0000000001
 40
0.0
 40
0.0
 40
0.0
 40
0.0
 40
1.0
 40
1.0
 40
1.0
 40
1.0
 10
10.40285442584172
 20
193.6320255831997
 30
0.0
 41
1.0
 10
10.08484746161775
 20
190.628625203637
 30
0.0
 41
1.0
 10
12.41689965583282
 20
188.0492386026708
 30
0.0
 41
1.0
 10
15.384965778494
 20
188.0492386026708
 30
0.0
 41
1.0
  0
SPLINE
  5
2E5
330
70
100
AcDbEntity
  8
Visible
100
AcDbSpline
210
0.0
220
0.0
230
1.0
 70
    12
 71
     3
 72
     8
 73
     4
 74
     0
 42
0.000000001
 43
0.0000000001
 40
0.0
 40
0.0
 40
0.0
 40
0.0
 40
1.0
 40
1.0
 40
1.0
 40
1.0
 10
15.52630213215525
 20
198.0841271259978
 30
0.0
 41
1.0
 10
12.94691148751917
 20
198.0841271259978
 30
0.0
 41
1.0
 10
10.68552747013564
 20
196.2114229672825
 30
0.0
 41
1.0
 10
10.40285442584172
 20
193.6320255831997
 30
0.0
 41
1.0
  0
LINE
  5
2E6
330
70
100
AcDbEntity
  8
Visible
100
AcDbLine
 10
17.293008
 20
198.084127
 30
0.0
 11
15.526302
 21
198.084127
 31
0.0
  0
SPLINE
  5
2E7
330
70
100
AcDbEntity
  8
Visible
100
AcDbSpline
210
0.0
220
0.0
230
1.0
 70
    12
 71
     3
 72
     8
 73
     4
 74
     0
 42
0.000000001
 43
0.0000000001
 40
0.0
 40
0.0
 40
0.0
 40
0.0
 40
1.0
 40
1.0
 40
1.0
 40
1.0
 10
18.17636129059247
 20
198.2254614578251
 30
0.0
 41
1.0
 10
17.85835365242383
 20
198.1194634047333
 30
0.0
 41
1.0
 10
17.54034736214453
 20
198.0841271259978
 30
0.0
 41
1.0
 10
17.29300823777885
 20
198.0841271259978
 30
0.0
 41
1.0
  0
SPLINE
  5
2E8
330
70
100
AcDbEntity
  8
Visible
100
AcDbSpline
210
0.0
220
0.0
230
1.0
 70
    12
 71
     3
 72
     8
 73
     4
 74
     0
 42
0.000000001
 43
0.0000000001
 40
0.0
 40
0.0
 40
0.0
 40
0.0
 40
1.0
 40
1.0
 40
1.0
 40
1.0
 10
18.9537122466445
 20
198.614138957686
 30
0.0
 41
1.0
 10
18.74170805312497
 20
198.4728046258587
 30
0.0
 41
1.0
 10
18.45903399791314
 20
198.3314702940333
 30
0.0
 41
1.0
 10
18.17636129059247
 20
198.2254614578251
 30
0.0
 41
1.0
  0
SPLINE
  5
2E9
330
70
100
AcDbEntity
  8
Visible
100
AcDbSpline
210
0.0
220
0.0
230
1.0
 70
    12
 71
     3
 72
     8
 73
     4
 74
     0
 42
0.000000001
 43
0.0000000001
 40
0.0
 40
0.0
 40
0.0
 40
0.0
 40
1.0
 40
1.0
 40
1.0
 40
1.0
 10
19.73106320269835
 20
198.1901251790878
 30
0.0
 41
1.0
 10
19.73106320269835
 20
198.5788026789487
 30
0.0
 41
1.0
 10
19.27171988481314
 20
198.8261350638659
 30
0.0
 41
1.0
 10
18.9537122466445
 20
198.614138957686
 30
0.0
 41
1.0
  0
LINE
  5
2EA
330
70
100
AcDbEntity
  8
Visible
100
AcDbLine
 10
19.717408
 20
194.162033
 30
0.0
 11
19.731063
 21
198.190125
 31
0.0
  0
LINE
  5
2EB
330
70
100
AcDbEntity
  8
Visible
100
AcDbLine
 10
19.709144
 20
206.776315
 30
0.0
 11
22.506493
 21
206.776315
 31
0.0
  0
LINE
  5
2EC
330
70
100
AcDbEntity
  8
Visible
100
AcDbLine
 10
19.695728
 20
202.818887
 30
0.0
 11
19.709144
 21
206.776315
 31
0.0
  0
SPLINE
  5
2ED
330
70
100
AcDbEntity
  8
Visible
100
AcDbSpline
210
0.0
220
0.0
230
1.0
 70
    12
 71
     3
 72
     8
 73
     4
 74
     0
 42
0.000000001
 43
0.0000000001
 40
0.0
 40
0.0
 40
0.0
 40
0.0
 40
1.0
 40
1.0
 40
1.0
 40
1.0
 10
19.05971434340426
 20
202.5008816069421
 30
0.0
 41
1.0
 10
19.34238705072676
 20
202.2888747176439
 30
0.0
 41
1.0
 10
19.6957282718522
 20
202.5008816069421
 30
0.0
 41
1.0
 10
19.6957282718522
 20
202.8188865493303
 30
0.0
 41
1.0
  0
SPLINE
  5
2EE
330
70
100
AcDbEntity
  8
Visible
100
AcDbSpline
210
0.0
220
0.0
230
1.0
 70
    12
 71
     3
 72
     8
 73
     4
 74
     0
 42
0.000000001
 43
0.0000000001
 40
0.0
 40
0.0
 40
0.0
 40
0.0
 40
1.0
 40
1.0
 40
1.0
 40
1.0
 10
17.25767465482204
 20
203.1015606045421
 30
0.0
 41
1.0
 10
17.50501377918772
 20
203.1015606045421
 30
0.0
 41
1.0
 10
18.28236473524157
 20
203.0662243258066
 30
0.0
 41
1.0
 10
19.05971434340426
 20
202.5008816069421
 30
0.0
 41
1.0
  0
LINE
  5
2EF
330
70
100
AcDbEntity
  8
Visible
100
AcDbLine
 10
15.384966
 20
203.101561
 30
0.0
 11
17.257675
 21
203.101561
 31
0.0
  0
SPLINE
  5
2F0
330
70
100
AcDbEntity
  8
Visible
100
AcDbSpline
210
0.0
220
0.0
230
1.0
 70
    12
 71
     3
 72
     8
 73
     4
 74
     0
 42
0.000000001
 43
0.0000000001
 40
0.0
 40
0.0
 40
0.0
 40
0.0
 40
1.0
 40
1.0
 40
1.0
 40
1.0
 10
10.40285442584172
 20
208.6843529766302
 30
0.0
 41
1.0
 10
10.08484746161775
 20
205.6809525970675
 30
0.0
 41
1.0
 10
12.41689965583282
 20
203.1015606045421
 30
0.0
 41
1.0
 10
15.384965778494
 20
203.1015606045421
 30
0.0
 41
1.0
  0
SPLINE
  5
2F1
330
70
100
AcDbEntity
  8
Visible
100
AcDbSpline
210
0.0
220
0.0
230
1.0
 70
    12
 71
     3
 72
     8
 73
     4
 74
     0
 42
0.000000001
 43
0.0000000001
 40
0.0
 40
0.0
 40
0.0
 40
0.0
 40
1.0
 40
1.0
 40
1.0
 40
1.0
 10
15.52630213215525
 20
213.1364545194283
 30
0.0
 41
1.0
 10
12.94691148751917
 20
213.1364545194283
 30
0.0
 41
1.0
 10
10.68552747013564
 20
211.2637449691538
 30
0.0
 41
1.0
 10
10.40285442584172
 20
208.6843529766302
 30
0.0
 41
1.0
  0
LINE
  5
2F2
330
70
100
AcDbEntity
  8
Visible
100
AcDbLine
 10
17.293008
 20
213.136455
 30
0.0
 11
15.526302
 21
213.136455
 31
0.0
  0
SPLINE
  5
2F3
330
70
100
AcDbEntity
  8
Visible
100
AcDbSpline
210
0.0
220
0.0
230
1.0
 70
    12
 71
     3
 72
     8
 73
     4
 74
     0
 42
0.000000001
 43
0.0000000001
 40
0.0
 40
0.0
 40
0.0
 40
0.0
 40
1.0
 40
1.0
 40
1.0
 40
1.0
 10
18.17636129059247
 20
213.2777888512555
 30
0.0
 41
1.0
 10
17.85835365242383
 20
213.1717854066046
 30
0.0
 41
1.0
 10
17.54034736214453
 20
213.1364545194283
 30
0.0
 41
1.0
 10
17.29300823777885
 20
213.1364545194283
 30
0.0
 41
1.0
  0
SPLINE
  5
2F4
330
70
100
AcDbEntity
  8
Visible
100
AcDbSpline
210
0.0
220
0.0
230
1.0
 70
    12
 71
     3
 72
     8
 73
     4
 74
     0
 42
0.000000001
 43
0.0000000001
 40
0.0
 40
0.0
 40
0.0
 40
0.0
 40
1.0
 40
1.0
 40
1.0
 40
1.0
 10
18.9537122466445
 20
213.6664663511165
 30
0.0
 41
1.0
 10
18.74170805312497
 20
213.5251320192892
 30
0.0
 41
1.0
 10
18.45903399791314
 20
213.3837922959046
 30
0.0
 41
1.0
 10
18.17636129059247
 20
213.2777888512555
 30
0.0
 41
1.0
  0
SPLINE
  5
2F5
330
70
100
AcDbEntity
  8
Visible
100
AcDbSpline
210
0.0
220
0.0
230
1.0
 70
    12
 71
     3
 72
     8
 73
     4
 74
     0
 42
0.000000001
 43
0.0000000001
 40
0.0
 40
0.0
 40
0.0
 40
0.0
 40
1.0
 40
1.0
 40
1.0
 40
1.0
 10
19.73106320269835
 20
213.2424579640774
 30
0.0
 41
1.0
 10
19.73106320269835
 20
213.6311354639383
 30
0.0
 41
1.0
 10
19.27171988481314
 20
213.8784732404147
 30
0.0
 41
1.0
 10
18.9537122466445
 20
213.6664663511165
 30
0.0
 41
1.0
  0
LINE
  5
2F6
330
70
100
AcDbEntity
  8
Visible
100
AcDbLine
 10
19.718127
 20
209.426374
 30
0.0
 11
19.731063
 21
213.242458
 31
0.0
  0
LINE
  5
2F7
330
70
100
AcDbEntity
  8
Visible
100
AcDbLine
 10
19.708904
 20
221.722648
 30
0.0
 11
22.506493
 21
221.722648
 31
0.0
  0
LINE
  5
2F8
330
70
100
AcDbEntity
  8
Visible
100
AcDbLine
 10
19.695728
 20
217.835888
 30
0.0
 11
19.708904
 21
221.722648
 31
0.0
  0
SPLINE
  5
2F9
330
70
100
AcDbEntity
  8
Visible
100
AcDbSpline
210
0.0
220
0.0
230
1.0
 70
    12
 71
     3
 72
     8
 73
     4
 74
     0
 42
0.000000001
 43
0.0000000001
 40
0.0
 40
0.0
 40
0.0
 40
0.0
 40
1.0
 40
1.0
 40
1.0
 40
1.0
 10
19.05971434340426
 20
217.5178835047554
 30
0.0
 41
1.0
 10
19.34238705072676
 20
217.3058766154554
 30
0.0
 41
1.0
 10
19.6957282718522
 20
217.5178835047554
 30
0.0
 41
1.0
 10
19.6957282718522
 20
217.8358884471436
 30
0.0
 41
1.0
  0
SPLINE
  5
2FA
330
70
100
AcDbEntity
  8
Visible
100
AcDbSpline
210
0.0
220
0.0
230
1.0
 70
    12
 71
     3
 72
     8
 73
     4
 74
     0
 42
0.000000001
 43
0.0000000001
 40
0.0
 40
0.0
 40
0.0
 40
0.0
 40
1.0
 40
1.0
 40
1.0
 40
1.0
 10
17.25767465482204
 20
218.1185625023554
 30
0.0
 41
1.0
 10
17.50501377918772
 20
218.1185625023554
 30
0.0
 41
1.0
 10
18.28236473524157
 20
218.0832262236199
 30
0.0
 41
1.0
 10
19.05971434340426
 20
217.5178835047554
 30
0.0
 41
1.0
  0
LINE
  5
2FB
330
70
100
AcDbEntity
  8
Visible
100
AcDbLine
 10
15.384966
 20
218.118563
 30
0.0
 11
17.257675
 21
218.118563
 31
0.0
  0
SPLINE
  5
2FC
330
70
100
AcDbEntity
  8
Visible
100
AcDbSpline
210
0.0
220
0.0
230
1.0
 70
    12
 71
     3
 72
     8
 73
     4
 74
     0
 42
0.000000001
 43
0.0000000001
 40
0.0
 40
0.0
 40
0.0
 40
0.0
 40
1.0
 40
1.0
 40
1.0
 40
1.0
 10
10.40285442584172
 20
223.7013548744417
 30
0.0
 41
1.0
 10
10.08484746161775
 20
220.697954494879
 30
0.0
 41
1.0
 10
12.41689965583282
 20
218.1185625023554
 30
0.0
 41
1.0
 10
15.384965778494
 20
218.1185625023554
 30
0.0
 41
1.0
  0
SPLINE
  5
2FD
330
70
100
AcDbEntity
  8
Visible
100
AcDbSpline
210
0.0
220
0.0
230
1.0
 70
    12
 71
     3
 72
     8
 73
     4
 74
     0
 42
0.000000001
 43
0.0000000001
 40
0.0
 40
0.0
 40
0.0
 40
0.0
 40
1.0
 40
1.0
 40
1.0
 40
1.0
 10
15.52630213215525
 20
228.1534564172416
 30
0.0
 41
1.0
 10
12.94691148751917
 20
228.1534564172416
 30
0.0
 41
1.0
 10
10.68552747013564
 20
226.2807468669671
 30
0.0
 41
1.0
 10
10.40285442584172
 20
223.7013548744417
 30
0.0
 41
1.0
  0
LINE
  5
2FE
330
70
100
AcDbEntity
  8
Visible
100
AcDbLine
 10
17.293008
 20
228.153456
 30
0.0
 11
15.526302
 21
228.153456
 31
0.0
  0
SPLINE
  5
2FF
330
70
100
AcDbEntity
  8
Visible
100
AcDbSpline
210
0.0
220
0.0
230
1.0
 70
    12
 71
     3
 72
     8
 73
     4
 74
     0
 42
0.000000001
 43
0.0000000001
 40
0.0
 40
0.0
 40
0.0
 40
0.0
 40
1.0
 40
1.0
 40
1.0
 40
1.0
 10
18.17636129059247
 20
228.294790749067
 30
0.0
 41
1.0
 10
17.85835365242383
 20
228.1887873044179
 30
0.0
 41
1.0
 10
17.54034736214453
 20
228.1534564172416
 30
0.0
 41
1.0
 10
17.29300823777885
 20
228.1534564172416
 30
0.0
 41
1.0
  0
SPLINE
  5
300
330
70
100
AcDbEntity
  8
Visible
100
AcDbSpline
210
0.0
220
0.0
230
1.0
 70
    12
 71
     3
 72
     8
 73
     4
 74
     0
 42
0.000000001
 43
0.0000000001
 40
0.0
 40
0.0
 40
0.0
 40
0.0
 40
1.0
 40
1.0
 40
1.0
 40
1.0
 10
18.9537122466445
 20
228.683468248928
 30
0.0
 41
1.0
 10
18.74170805312497
 20
228.5421339171025
 30
0.0
 41
1.0
 10
18.45903399791314
 20
228.4007941937161
 30
0.0
 41
1.0
 10
18.17636129059247
 20
228.294790749067
 30
0.0
 41
1.0
  0
SPLINE
  5
301
330
70
100
AcDbEntity
  8
Visible
100
AcDbSpline
210
0.0
220
0.0
230
1.0
 70
    12
 71
     3
 72
     8
 73
     4
 74
     0
 42
0.000000001
 43
0.0000000001
 40
0.0
 40
0.0
 40
0.0
 40
0.0
 40
1.0
 40
1.0
 40
1.0
 40
1.0
 10
19.73106320269835
 20
228.2594598618907
 30
0.0
 41
1.0
 10
19.73106320269835
 20
228.6481373617517
 30
0.0
 41
1.0
 10
19.27171988481314
 20
228.8954751382262
 30
0.0
 41
1.0
 10
18.9537122466445
 20
228.683468248928
 30
0.0
 41
1.0
  0
LINE
  5
302
330
70
100
AcDbEntity
  8
Visible
100
AcDbLine
 10
19.717887
 20
224.372708
 30
0.0
 11
19.731063
 21
228.25946
 31
0.0
  0
LINE
  5
303
330
70
100
AcDbEntity
  8
Visible
100
AcDbLine
 10
19.707107
 20
236.209638
 30
0.0
 11
22.506493
 21
236.209638
 31
0.0
  0
LINE
  5
304
330
70
100
AcDbEntity
  8
Visible
100
AcDbLine
 10
19.695728
 20
232.85289
 30
0.0
 11
19.707107
 21
236.209638
 31
0.0
  0
SPLINE
  5
305
330
70
100
AcDbEntity
  8
Visible
100
AcDbSpline
210
0.0
220
0.0
230
1.0
 70
    12
 71
     3
 72
     8
 73
     4
 74
     0
 42
0.000000001
 43
0.0000000001
 40
0.0
 40
0.0
 40
0.0
 40
0.0
 40
1.0
 40
1.0
 40
1.0
 40
1.0
 10
19.05971434340426
 20
232.5348854025669
 30
0.0
 41
1.0
 10
19.34238705072676
 20
232.3228785132688
 30
0.0
 41
1.0
 10
19.6957282718522
 20
232.5348854025669
 30
0.0
 41
1.0
 10
19.6957282718522
 20
232.8528903449569
 30
0.0
 41
1.0
  0
SPLINE
  5
306
330
70
100
AcDbEntity
  8
Visible
100
AcDbSpline
210
0.0
220
0.0
230
1.0
 70
    12
 71
     3
 72
     8
 73
     4
 74
     0
 42
0.000000001
 43
0.0000000001
 40
0.0
 40
0.0
 40
0.0
 40
0.0
 40
1.0
 40
1.0
 40
1.0
 40
1.0
 10
17.25767465482204
 20
233.1355644001687
 30
0.0
 41
1.0
 10
17.50501377918772
 20
233.1355644001687
 30
0.0
 41
1.0
 10
18.28236473524157
 20
233.1002281214314
 30
0.0
 41
1.0
 10
19.05971434340426
 20
232.5348854025669
 30
0.0
 41
1.0
  0
LINE
  5
307
330
70
100
AcDbEntity
  8
Visible
100
AcDbLine
 10
15.384966
 20
233.135564
 30
0.0
 11
17.257675
 21
233.135564
 31
0.0
  0
SPLINE
  5
308
330
70
100
AcDbEntity
  8
Visible
100
AcDbSpline
210
0.0
220
0.0
230
1.0
 70
    12
 71
     3
 72
     8
 73
     4
 74
     0
 42
0.000000001
 43
0.0000000001
 40
0.0
 40
0.0
 40
0.0
 40
0.0
 40
1.0
 40
1.0
 40
1.0
 40
1.0
 10
10.40285442584172
 20
238.718356772255
 30
0.0
 41
1.0
 10
10.08484746161775
 20
235.7149563926923
 30
0.0
 41
1.0
 10
12.41689965583282
 20
233.1355644001687
 30
0.0
 41
1.0
 10
15.384965778494
 20
233.1355644001687
 30
0.0
 41
1.0
  0
SPLINE
  5
309
330
70
100
AcDbEntity
  8
Visible
100
AcDbSpline
210
0.0
220
0.0
230
1.0
 70
    12
 71
     3
 72
     8
 73
     4
 74
     0
 42
0.000000001
 43
0.0000000001
 40
0.0
 40
0.0
 40
0.0
 40
0.0
 40
1.0
 40
1.0
 40
1.0
 40
1.0
 10
15.52630213215525
 20
243.1704583150531
 30
0.0
 41
1.0
 10
12.94691148751917
 20
243.1704583150531
 30
0.0
 41
1.0
 10
10.68552747013564
 20
241.2977487647786
 30
0.0
 41
1.0
 10
10.40285442584172
 20
238.718356772255
 30
0.0
 41
1.0
  0
LINE
  5
30A
330
70
100
AcDbEntity
  8
Visible
100
AcDbLine
 10
17.293008
 20
243.170458
 30
0.0
 11
15.526302
 21
243.170458
 31
0.0
  0
SPLINE
  5
30B
330
70
100
AcDbEntity
  8
Visible
100
AcDbSpline
210
0.0
220
0.0
230
1.0
 70
    12
 71
     3
 72
     8
 73
     4
 74
     0
 42
0.000000001
 43
0.0000000001
 40
0.0
 40
0.0
 40
0.0
 40
0.0
 40
1.0
 40
1.0
 40
1.0
 40
1.0
 10
18.17636129059247
 20
243.3117926468804
 30
0.0
 41
1.0
 10
17.85835365242383
 20
243.2057892022312
 30
0.0
 41
1.0
 10
17.54034736214453
 20
243.1704583150531
 30
0.0
 41
1.0
 10
17.29300823777885
 20
243.1704583150531
 30
0.0
 41
1.0
  0
SPLINE
  5
30C
330
70
100
AcDbEntity
  8
Visible
100
AcDbSpline
210
0.0
220
0.0
230
1.0
 70
    12
 71
     3
 72
     8
 73
     4
 74
     0
 42
0.000000001
 43
0.0000000001
 40
0.0
 40
0.0
 40
0.0
 40
0.0
 40
1.0
 40
1.0
 40
1.0
 40
1.0
 10
18.9537122466445
 20
243.7004701467413
 30
0.0
 41
1.0
 10
18.74170805312497
 20
243.5591358149141
 30
0.0
 41
1.0
 10
18.45903399791314
 20
243.4177960915294
 30
0.0
 41
1.0
 10
18.17636129059247
 20
243.3117926468804
 30
0.0
 41
1.0
  0
SPLINE
  5
30D
330
70
100
AcDbEntity
  8
Visible
100
AcDbSpline
210
0.0
220
0.0
230
1.0
 70
    12
 71
     3
 72
     8
 73
     4
 74
     0
 42
0.000000001
 43
0.0000000001
 40
0.0
 40
0.0
 40
0.0
 40
0.0
 40
1.0
 40
1.0
 40
1.0
 40
1.0
 10
19.73106320269835
 20
243.2764617597022
 30
0.0
 41
1.0
 10
19.73106320269835
 20
243.6651392595631
 30
0.0
 41
1.0
 10
19.27171988481314
 20
243.9124770360395
 30
0.0
 41
1.0
 10
18.9537122466445
 20
243.7004701467413
 30
0.0
 41
1.0
  0
LINE
  5
30E
330
70
100
AcDbEntity
  8
Visible
100
AcDbLine
 10
19.716091
 20
238.859698
 30
0.0
 11
19.731063
 21
243.276462
 31
0.0
  0
LINE
  5
30F
330
70
100
AcDbEntity
  8
Visible
100
AcDbLine
 10
19.708425
 20
251.615316
 30
0.0
 11
22.506493
 21
251.615316
 31
0.0
  0
LINE
  5
310
330
70
100
AcDbEntity
  8
Visible
100
AcDbLine
 10
19.695728
 20
247.869892
 30
0.0
 11
19.708425
 21
251.615316
 31
0.0
  0
SPLINE
  5
311
330
70
100
AcDbEntity
  8
Visible
100
AcDbSpline
210
0.0
220
0.0
230
1.0
 70
    12
 71
     3
 72
     8
 73
     4
 74
     0
 42
0.000000001
 43
0.0000000001
 40
0.0
 40
0.0
 40
0.0
 40
0.0
 40
1.0
 40
1.0
 40
1.0
 40
1.0
 10
19.05971434340426
 20
247.5518873003803
 30
0.0
 41
1.0
 10
19.34238705072676
 20
247.3398804110821
 30
0.0
 41
1.0
 10
19.6957282718522
 20
247.5518873003803
 30
0.0
 41
1.0
 10
19.6957282718522
 20
247.8698922427684
 30
0.0
 41
1.0
  0
SPLINE
  5
312
330
70
100
AcDbEntity
  8
Visible
100
AcDbSpline
210
0.0
220
0.0
230
1.0
 70
    12
 71
     3
 72
     8
 73
     4
 74
     0
 42
0.000000001
 43
0.0000000001
 40
0.0
 40
0.0
 40
0.0
 40
0.0
 40
1.0
 40
1.0
 40
1.0
 40
1.0
 10
17.25767465482204
 20
248.1525689937607
 30
0.0
 41
1.0
 10
17.50501377918772
 20
248.1525689937607
 30
0.0
 41
1.0
 10
18.28236473524157
 20
248.1172354108039
 30
0.0
 41
1.0
 10
19.05971434340426
 20
247.5518873003803
 30
0.0
 41
1.0
  0
LINE
  5
313
330
70
100
AcDbEntity
  8
Visible
100
AcDbLine
 10
15.384966
 20
248.152569
 30
0.0
 11
17.257675
 21
248.152569
 31
0.0
  0
SPLINE
  5
314
330
70
100
AcDbEntity
  8
Visible
100
AcDbSpline
210
0.0
220
0.0
230
1.0
 70
    12
 71
     3
 72
     8
 73
     4
 74
     0
 42
0.000000001
 43
0.0000000001
 40
0.0
 40
0.0
 40
0.0
 40
0.0
 40
1.0
 40
1.0
 40
1.0
 40
1.0
 10
10.40285442584172
 20
253.735361365847
 30
0.0
 41
1.0
 10
10.08484746161775
 20
250.7319609862843
 30
0.0
 41
1.0
 10
12.41689965583282
 20
248.1525689937607
 30
0.0
 41
1.0
 10
15.384965778494
 20
248.1525689937607
 30
0.0
 41
1.0
  0
SPLINE
  5
315
330
70
100
AcDbEntity
  8
Visible
100
AcDbSpline
210
0.0
220
0.0
230
1.0
 70
    12
 71
     3
 72
     8
 73
     4
 74
     0
 42
0.000000001
 43
0.0000000001
 40
0.0
 40
0.0
 40
0.0
 40
0.0
 40
1.0
 40
1.0
 40
1.0
 40
1.0
 10
15.52630213215525
 20
258.1874602128664
 30
0.0
 41
1.0
 10
12.94691148751917
 20
258.1874602128664
 30
0.0
 41
1.0
 10
10.68552747013564
 20
256.3147506625919
 30
0.0
 41
1.0
 10
10.40285442584172
 20
253.735361365847
 30
0.0
 41
1.0
  0
LINE
  5
316
330
70
100
AcDbEntity
  8
Visible
100
AcDbLine
 10
17.293008
 20
258.18746
 30
0.0
 11
15.526302
 21
258.18746
 31
0.0
  0
SPLINE
  5
317
330
70
100
AcDbEntity
  8
Visible
100
AcDbSpline
210
0.0
220
0.0
230
1.0
 70
    12
 71
     3
 72
     8
 73
     4
 74
     0
 42
0.000000001
 43
0.0000000001
 40
0.0
 40
0.0
 40
0.0
 40
0.0
 40
1.0
 40
1.0
 40
1.0
 40
1.0
 10
18.17636129059247
 20
258.3287972404723
 30
0.0
 41
1.0
 10
17.85835365242383
 20
258.2227937958232
 30
0.0
 41
1.0
 10
17.54034736214453
 20
258.1874602128664
 30
0.0
 41
1.0
 10
17.29300823777885
 20
258.1874602128664
 30
0.0
 41
1.0
  0
SPLINE
  5
318
330
70
100
AcDbEntity
  8
Visible
100
AcDbSpline
210
0.0
220
0.0
230
1.0
 70
    12
 71
     3
 72
     8
 73
     4
 74
     0
 42
0.000000001
 43
0.0000000001
 40
0.0
 40
0.0
 40
0.0
 40
0.0
 40
1.0
 40
1.0
 40
1.0
 40
1.0
 10
18.9537122466445
 20
258.7174720445528
 30
0.0
 41
1.0
 10
18.74170805312497
 20
258.5761350169469
 30
0.0
 41
1.0
 10
18.45903399791314
 20
258.434797989341
 30
0.0
 41
1.0
 10
18.17636129059247
 20
258.3287972404723
 30
0.0
 41
1.0
  0
SPLINE
  5
319
330
70
100
AcDbEntity
  8
Visible
100
AcDbSpline
210
0.0
220
0.0
230
1.0
 70
    12
 71
     3
 72
     8
 73
     4
 74
     0
 42
0.000000001
 43
0.0000000001
 40
0.0
 40
0.0
 40
0.0
 40
0.0
 40
1.0
 40
1.0
 40
1.0
 40
1.0
 10
19.73106320269835
 20
258.2934636575155
 30
0.0
 41
1.0
 10
19.73106320269835
 20
258.6821384615978
 30
0.0
 41
1.0
 10
19.27171988481314
 20
258.9294789338528
 30
0.0
 41
1.0
 10
18.9537122466445
 20
258.7174720445528
 30
0.0
 41
1.0
  0
LINE
  5
31A
330
70
100
AcDbEntity
  8
Visible
100
AcDbLine
 10
19.717408
 20
254.265375
 30
0.0
 11
19.731063
 21
258.293464
 31
0.0
  0
LINE
  5
31B
330
70
100
AcDbEntity
  8
Visible
100
AcDbLine
 10
19.709144
 20
266.844322
 30
0.0
 11
22.506493
 21
266.844322
 31
0.0
  0
LINE
  5
31C
330
70
100
AcDbEntity
  8
Visible
100
AcDbLine
 10
19.695728
 20
262.886902
 30
0.0
 11
19.709144
 21
266.844322
 31
0.0
  0
SPLINE
  5
31D
330
70
100
AcDbEntity
  8
Visible
100
AcDbSpline
210
0.0
220
0.0
230
1.0
 70
    12
 71
     3
 72
     8
 73
     4
 74
     0
 42
0.000000001
 43
0.0000000001
 40
0.0
 40
0.0
 40
0.0
 40
0.0
 40
1.0
 40
1.0
 40
1.0
 40
1.0
 10
19.05971434340426
 20
262.5688945897509
 30
0.0
 41
1.0
 10
19.34238705072676
 20
262.3568903962332
 30
0.0
 41
1.0
 10
19.6957282718522
 20
262.5688945897509
 30
0.0
 41
1.0
 10
19.6957282718522
 20
262.8869022279196
 30
0.0
 41
1.0
  0
SPLINE
  5
31E
330
70
100
AcDbEntity
  8
Visible
100
AcDbSpline
210
0.0
220
0.0
230
1.0
 70
    12
 71
     3
 72
     8
 73
     4
 74
     0
 42
0.000000001
 43
0.0000000001
 40
0.0
 40
0.0
 40
0.0
 40
0.0
 40
1.0
 40
1.0
 40
1.0
 40
1.0
 10
17.25767465482204
 20
263.1695735873527
 30
0.0
 41
1.0
 10
17.50501377918772
 20
263.1695735873527
 30
0.0
 41
1.0
 10
18.28236473524157
 20
263.1342400043959
 30
0.0
 41
1.0
 10
19.05971434340426
 20
262.5688945897509
 30
0.0
 41
1.0
  0
LINE
  5
31F
330
70
100
AcDbEntity
  8
Visible
100
AcDbLine
 10
15.384966
 20
263.169574
 30
0.0
 11
17.257675
 21
263.169574
 31
0.0
  0
SPLINE
  5
320
330
70
100
AcDbEntity
  8
Visible
100
AcDbSpline
210
0.0
220
0.0
230
1.0
 70
    12
 71
     3
 72
     8
 73
     4
 74
     0
 42
0.000000001
 43
0.0000000001
 40
0.0
 40
0.0
 40
0.0
 40
0.0
 40
1.0
 40
1.0
 40
1.0
 40
1.0
 10
10.40285442584172
 20
268.752365959439
 30
0.0
 41
1.0
 10
10.08484847253567
 20
265.7489655798763
 30
0.0
 41
1.0
 10
12.41690032977749
 20
263.1695735873527
 30
0.0
 41
1.0
 10
15.38496645243867
 20
263.1695735873527
 30
0.0
 41
1.0
  0
SPLINE
  5
321
330
70
100
AcDbEntity
  8
Visible
100
AcDbSpline
210
0.0
220
0.0
230
1.0
 70
    12
 71
     3
 72
     8
 73
     4
 74
     0
 42
0.000000001
 43
0.0000000001
 40
0.0
 40
0.0
 40
0.0
 40
0.0
 40
1.0
 40
1.0
 40
1.0
 40
1.0
 10
15.52630213215525
 20
273.2044648064584
 30
0.0
 41
1.0
 10
12.94691148751917
 20
273.2044648064584
 30
0.0
 41
1.0
 10
10.68552747013564
 20
271.3317566040732
 30
0.0
 41
1.0
 10
10.40285442584172
 20
268.752365959439
 30
0.0
 41
1.0
  0
LINE
  5
322
330
70
100
AcDbEntity
  8
Visible
100
AcDbLine
 10
17.293008
 20
273.204465
 30
0.0
 11
15.526302
 21
273.204465
 31
0.0
  0
SPLINE
  5
323
330
70
100
AcDbEntity
  8
Visible
100
AcDbSpline
210
0.0
220
0.0
230
1.0
 70
    12
 71
     3
 72
     8
 73
     4
 74
     0
 42
0.000000001
 43
0.0000000001
 40
0.0
 40
0.0
 40
0.0
 40
0.0
 40
1.0
 40
1.0
 40
1.0
 40
1.0
 10
18.17636129059247
 20
273.3458018340643
 30
0.0
 41
1.0
 10
17.85835365242383
 20
273.2397997373046
 30
0.0
 41
1.0
 10
17.54034736214453
 20
273.2044648064584
 30
0.0
 41
1.0
 10
17.29300823777885
 20
273.2044648064584
 30
0.0
 41
1.0
  0
SPLINE
  5
324
330
70
100
AcDbEntity
  8
Visible
100
AcDbSpline
210
0.0
220
0.0
230
1.0
 70
    12
 71
     3
 72
     8
 73
     4
 74
     0
 42
0.000000001
 43
0.0000000001
 40
0.0
 40
0.0
 40
0.0
 40
0.0
 40
1.0
 40
1.0
 40
1.0
 40
1.0
 10
18.9537122466445
 20
273.7344766381466
 30
0.0
 41
1.0
 10
18.74170805312497
 20
273.5931396105407
 30
0.0
 41
1.0
 10
18.45903399791314
 20
273.4518039308241
 30
0.0
 41
1.0
 10
18.17636129059247
 20
273.3458018340643
 30
0.0
 41
1.0
  0
SPLINE
  5
325
330
70
100
AcDbEntity
  8
Visible
100
AcDbSpline
210
0.0
220
0.0
230
1.0
 70
    12
 71
     3
 72
     8
 73
     4
 74
     0
 42
0.000000001
 43
0.0000000001
 40
0.0
 40
0.0
 40
0.0
 40
0.0
 40
1.0
 40
1.0
 40
1.0
 40
1.0
 10
19.73106320269835
 20
273.3104669032182
 30
0.0
 41
1.0
 10
19.73106320269835
 20
273.6991417072986
 30
0.0
 41
1.0
 10
19.27171988481314
 20
273.9464808316643
 30
0.0
 41
1.0
 10
18.9537122466445
 20
273.7344766381466
 30
0.0
 41
1.0
  0
LINE
  5
326
330
70
100
AcDbEntity
  8
Visible
100
AcDbLine
 10
19.718127
 20
269.494381
 30
0.0
 11
19.731063
 21
273.310467
 31
0.0
  0
LINE
  5
327
330
70
100
AcDbEntity
  8
Visible
100
AcDbLine
 10
19.71094
 20
282.42667
 30
0.0
 11
22.506493
 21
282.42667
 31
0.0
  0
LINE
  5
328
330
70
100
AcDbEntity
  8
Visible
100
AcDbLine
 10
19.695728
 20
277.939236
 30
0.0
 11
19.71094
 21
282.42667
 31
0.0
  0
SPLINE
  5
329
330
70
100
AcDbEntity
  8
Visible
100
AcDbSpline
210
0.0
220
0.0
230
1.0
 70
    12
 71
     3
 72
     8
 73
     4
 74
     0
 42
0.000000001
 43
0.0000000001
 40
0.0
 40
0.0
 40
0.0
 40
0.0
 40
1.0
 40
1.0
 40
1.0
 40
1.0
 10
19.05971434340426
 20
277.6212287226317
 30
0.0
 41
1.0
 10
19.34238705072676
 20
277.4092245291122
 30
0.0
 41
1.0
 10
19.6957282718522
 20
277.6212287226317
 30
0.0
 41
1.0
 10
19.6957282718522
 20
277.9392363608003
 30
0.0
 41
1.0
  0
SPLINE
  5
32A
330
70
100
AcDbEntity
  8
Visible
100
AcDbSpline
210
0.0
220
0.0
230
1.0
 70
    12
 71
     3
 72
     8
 73
     4
 74
     0
 42
0.000000001
 43
0.0000000001
 40
0.0
 40
0.0
 40
0.0
 40
0.0
 40
1.0
 40
1.0
 40
1.0
 40
1.0
 10
17.25767465482204
 20
278.221909068121
 30
0.0
 41
1.0
 10
17.50501377918772
 20
278.221909068121
 30
0.0
 41
1.0
 10
18.28236473524157
 20
278.1865754851642
 30
0.0
 41
1.0
 10
19.05971434340426
 20
277.6212287226317
 30
0.0
 41
1.0
  0
LINE
  5
32B
330
70
100
AcDbEntity
  8
Visible
100
AcDbLine
 10
15.384966
 20
278.221909
 30
0.0
 11
17.257675
 21
278.221909
 31
0.0
  0
SPLINE
  5
32C
330
70
100
AcDbEntity
  8
Visible
100
AcDbSpline
210
0.0
220
0.0
230
1.0
 70
    12
 71
     3
 72
     8
 73
     4
 74
     0
 42
0.000000001
 43
0.0000000001
 40
0.0
 40
0.0
 40
0.0
 40
0.0
 40
1.0
 40
1.0
 40
1.0
 40
1.0
 10
10.40285442584172
 20
283.8047007662626
 30
0.0
 41
1.0
 10
10.08484746161775
 20
280.8013010606464
 30
0.0
 41
1.0
 10
12.41689965583282
 20
278.221909068121
 30
0.0
 41
1.0
 10
15.384965778494
 20
278.221909068121
 30
0.0
 41
1.0
  0
SPLINE
  5
32D
330
70
100
AcDbEntity
  8
Visible
100
AcDbSpline
210
0.0
220
0.0
230
1.0
 70
    12
 71
     3
 72
     8
 73
     4
 74
     0
 42
0.000000001
 43
0.0000000001
 40
0.0
 40
0.0
 40
0.0
 40
0.0
 40
1.0
 40
1.0
 40
1.0
 40
1.0
 10
15.52630213215525
 20
288.2568002872267
 30
0.0
 41
1.0
 10
12.94691148751917
 20
288.2568002872267
 30
0.0
 41
1.0
 10
10.68552747013564
 20
286.3840920848434
 30
0.0
 41
1.0
 10
10.40285442584172
 20
283.8047007662626
 30
0.0
 41
1.0
  0
LINE
  5
32E
330
70
100
AcDbEntity
  8
Visible
100
AcDbLine
 10
17.293008
 20
288.2568
 30
0.0
 11
15.526302
 21
288.2568
 31
0.0
  0
SPLINE
  5
32F
330
70
100
AcDbEntity
  8
Visible
100
AcDbSpline
210
0.0
220
0.0
230
1.0
 70
    12
 71
     3
 72
     8
 73
     4
 74
     0
 42
0.000000001
 43
0.0000000001
 40
0.0
 40
0.0
 40
0.0
 40
0.0
 40
1.0
 40
1.0
 40
1.0
 40
1.0
 10
18.17636129059247
 20
288.398136640888
 30
0.0
 41
1.0
 10
17.85835365242383
 20
288.2921342071568
 30
0.0
 41
1.0
 10
17.54034736214453
 20
288.2568002872267
 30
0.0
 41
1.0
 10
17.29300823777885
 20
288.2568002872267
 30
0.0
 41
1.0
  0
SPLINE
  5
330
330
70
100
AcDbEntity
  8
Visible
100
AcDbSpline
210
0.0
220
0.0
230
1.0
 70
    12
 71
     3
 72
     8
 73
     4
 74
     0
 42
0.000000001
 43
0.0000000001
 40
0.0
 40
0.0
 40
0.0
 40
0.0
 40
1.0
 40
1.0
 40
1.0
 40
1.0
 10
18.9537122466445
 20
288.7868121189149
 30
0.0
 41
1.0
 10
18.74170805312497
 20
288.6454757652536
 30
0.0
 41
1.0
 10
18.45903399791314
 20
288.504139074621
 30
0.0
 41
1.0
 10
18.17636129059247
 20
288.398136640888
 30
0.0
 41
1.0
  0
SPLINE
  5
331
330
70
100
AcDbEntity
  8
Visible
100
AcDbSpline
210
0.0
220
0.0
230
1.0
 70
    12
 71
     3
 72
     8
 73
     4
 74
     0
 42
0.000000001
 43
0.0000000001
 40
0.0
 40
0.0
 40
0.0
 40
0.0
 40
1.0
 40
1.0
 40
1.0
 40
1.0
 10
19.73106320269835
 20
288.3628027209597
 30
0.0
 41
1.0
 10
19.73106320269835
 20
288.7514781989866
 30
0.0
 41
1.0
 10
19.27171988481314
 20
288.9988169863791
 30
0.0
 41
1.0
 10
18.9537122466445
 20
288.7868121189149
 30
0.0
 41
1.0
  0
LINE
  5
332
330
70
100
AcDbEntity
  8
Visible
100
AcDbLine
 10
19.719924
 20
285.076729
 30
0.0
 11
19.731063
 21
288.362803
 31
0.0
  0
LINE
  5
333
330
70
100
AcDbEntity
  8
Visible
100
AcDbLine
 10
33.181983
 20
285.076729
 30
0.0
 11
19.719924
 21
285.076729
 31
0.0
  0
LINE
  5
334
330
70
100
AcDbEntity
  8
Visible
100
AcDbLine
 10
33.19336
 20
288.433471
 30
0.0
 11
33.181983
 21
285.076729
 31
0.0
  0
SPLINE
  5
335
330
70
100
AcDbEntity
  8
Visible
100
AcDbSpline
210
0.0
220
0.0
230
1.0
 70
    12
 71
     3
 72
     8
 73
     4
 74
     0
 42
0.000000001
 43
0.0000000001
 40
0.0
 40
0.0
 40
0.0
 40
0.0
 40
1.0
 40
1.0
 40
1.0
 40
1.0
 10
33.82937576896257
 20
288.7514778620134
 30
0.0
 41
1.0
 10
33.54670171375074
 20
288.9634827294776
 30
0.0
 41
1.0
 10
33.19336049262529
 20
288.7514778620134
 30
0.0
 41
1.0
 10
33.19336049262529
 20
288.4334708977895
 30
0.0
 41
1.0
  0
SPLINE
  5
336
330
70
100
AcDbEntity
  8
Visible
100
AcDbSpline
210
0.0
220
0.0
230
1.0
 70
    12
 71
     3
 72
     8
 73
     4
 74
     0
 42
0.000000001
 43
0.0000000001
 40
0.0
 40
0.0
 40
0.0
 40
0.0
 40
1.0
 40
1.0
 40
1.0
 40
1.0
 10
35.63141545754297
 20
288.1507978534955
 30
0.0
 41
1.0
 10
35.38407768106845
 20
288.1507978534955
 30
0.0
 41
1.0
 10
34.60672537712526
 20
288.186132110397
 30
0.0
 41
1.0
 10
33.82937576896257
 20
288.7514778620134
 30
0.0
 41
1.0
  0
LINE
  5
337
330
70
100
AcDbEntity
  8
Visible
100
AcDbLine
 10
37.504125
 20
288.150798
 30
0.0
 11
35.631415
 21
288.150798
 31
0.0
  0
SPLINE
  5
338
330
70
100
AcDbEntity
  8
Visible
100
AcDbSpline
210
0.0
220
0.0
230
1.0
 70
    12
 71
     3
 72
     8
 73
     4
 74
     0
 42
0.000000001
 43
0.0000000001
 40
0.0
 40
0.0
 40
0.0
 40
0.0
 40
1.0
 40
1.0
 40
1.0
 40
1.0
 10
42.48623568652511
 20
282.5680064923254
 30
0.0
 41
1.0
 10
42.80424332469192
 20
285.571406871888
 30
0.0
 41
1.0
 10
40.47219180442334
 20
288.1507978534955
 30
0.0
 41
1.0
 10
37.50412500781749
 20
288.1507978534955
 30
0.0
 41
1.0
  0
SPLINE
  5
339
330
70
100
AcDbEntity
  8
Visible
100
AcDbSpline
210
0.0
220
0.0
230
1.0
 70
    12
 71
     3
 72
     8
 73
     4
 74
     0
 42
0.000000001
 43
0.0000000001
 40
0.0
 40
0.0
 40
0.0
 40
0.0
 40
1.0
 40
1.0
 40
1.0
 40
1.0
 10
37.36278798021158
 20
278.1159069713613
 30
0.0
 41
1.0
 10
39.94217997273699
 20
278.1159069713613
 30
0.0
 41
1.0
 10
42.20356163131327
 20
279.9886151737464
 30
0.0
 41
1.0
 10
42.48623568652511
 20
282.5680064923254
 30
0.0
 41
1.0
  0
LINE
  5
33A
330
70
100
AcDbEntity
  8
Visible
100
AcDbLine
 10
35.596082
 20
278.115907
 30
0.0
 11
37.362788
 21
278.115907
 31
0.0
  0
SPLINE
  5
33B
330
70
100
AcDbEntity
  8
Visible
100
AcDbSpline
210
0.0
220
0.0
230
1.0
 70
    12
 71
     3
 72
     8
 73
     4
 74
     0
 42
0.000000001
 43
0.0000000001
 40
0.0
 40
0.0
 40
0.0
 40
0.0
 40
1.0
 40
1.0
 40
1.0
 40
1.0
 10
34.71272882177436
 20
277.9745699437553
 30
0.0
 41
1.0
 10
35.030736459943
 20
278.0805720405151
 30
0.0
 41
1.0
 10
35.34874409811164
 20
278.1159069713613
 30
0.0
 41
1.0
 10
35.59608187458616
 20
278.1159069713613
 30
0.0
 41
1.0
  0
SPLINE
  5
33C
330
70
100
AcDbEntity
  8
Visible
100
AcDbSpline
210
0.0
220
0.0
230
1.0
 70
    12
 71
     3
 72
     8
 73
     4
 74
     0
 42
0.000000001
 43
0.0000000001
 40
0.0
 40
0.0
 40
0.0
 40
0.0
 40
1.0
 40
1.0
 40
1.0
 40
1.0
 10
33.93537921361167
 20
277.5858951396749
 30
0.0
 41
1.0
 10
34.14738340712939
 20
277.7272321672808
 30
0.0
 41
1.0
 10
34.43005746234121
 20
277.8685678469974
 30
0.0
 41
1.0
 10
34.71272882177436
 20
277.9745699437553
 30
0.0
 41
1.0
  0
SPLINE
  5
33D
330
70
100
AcDbEntity
  8
Visible
100
AcDbSpline
210
0.0
220
0.0
230
1.0
 70
    12
 71
     3
 72
     8
 73
     4
 74
     0
 42
0.000000001
 43
0.0000000001
 40
0.0
 40
0.0
 40
0.0
 40
0.0
 40
1.0
 40
1.0
 40
1.0
 40
1.0
 10
33.15802960544715
 20
278.0099048746033
 30
0.0
 41
1.0
 10
33.15802960544715
 20
277.6212300705211
 30
0.0
 41
1.0
 10
33.61737427122171
 20
277.3738909461554
 30
0.0
 41
1.0
 10
33.93537921361167
 20
277.5858951396749
 30
0.0
 41
1.0
  0
LINE
  5
33E
330
70
100
AcDbEntity
  8
Visible
100
AcDbLine
 10
33.173
 20
282.42667
 30
0.0
 11
33.15803
 21
278.009905
 31
0.0
  0
LINE
  5
33F
330
70
100
AcDbEntity
  8
Visible
100
AcDbLine
 10
33.180066
 20
269.494381
 30
0.0
 11
30.02926
 21
269.494381
 31
0.0
  0
LINE
  5
340
330
70
100
AcDbEntity
  8
Visible
100
AcDbLine
 10
33.19336
 20
273.416469
 30
0.0
 11
33.180066
 21
269.494381
 31
0.0
  0
SPLINE
  5
341
330
70
100
AcDbEntity
  8
Visible
100
AcDbSpline
210
0.0
220
0.0
230
1.0
 70
    12
 71
     3
 72
     8
 73
     4
 74
     0
 42
0.000000001
 43
0.0000000001
 40
0.0
 40
0.0
 40
0.0
 40
0.0
 40
1.0
 40
1.0
 40
1.0
 40
1.0
 10
33.82937576896257
 20
273.7344766381466
 30
0.0
 41
1.0
 10
33.54670171375074
 20
273.9464808316643
 30
0.0
 41
1.0
 10
33.19336049262529
 20
273.7344766381466
 30
0.0
 41
1.0
 10
33.19336049262529
 20
273.4164689999779
 30
0.0
 41
1.0
  0
SPLINE
  5
342
330
70
100
AcDbEntity
  8
Visible
100
AcDbSpline
210
0.0
220
0.0
230
1.0
 70
    12
 71
     3
 72
     8
 73
     4
 74
     0
 42
0.000000001
 43
0.0000000001
 40
0.0
 40
0.0
 40
0.0
 40
0.0
 40
1.0
 40
1.0
 40
1.0
 40
1.0
 10
35.63141545754297
 20
273.1337962926555
 30
0.0
 41
1.0
 10
35.38407768106845
 20
273.1337962926555
 30
0.0
 41
1.0
 10
34.60672537712526
 20
273.1691298756123
 30
0.0
 41
1.0
 10
33.82937576896257
 20
273.7344766381466
 30
0.0
 41
1.0
  0
LINE
  5
343
330
70
100
AcDbEntity
  8
Visible
100
AcDbLine
 10
37.504125
 20
273.133796
 30
0.0
 11
35.631415
 21
273.133796
 31
0.0
  0
SPLINE
  5
344
330
70
100
AcDbEntity
  8
Visible
100
AcDbSpline
210
0.0
220
0.0
230
1.0
 70
    12
 71
     3
 72
     8
 73
     4
 74
     0
 42
0.000000001
 43
0.0000000001
 40
0.0
 40
0.0
 40
0.0
 40
0.0
 40
1.0
 40
1.0
 40
1.0
 40
1.0
 10
42.48623568652511
 20
267.5510052684586
 30
0.0
 41
1.0
 10
42.80424332469192
 20
270.5544056480212
 30
0.0
 41
1.0
 10
40.47219180442334
 20
273.1337962926555
 30
0.0
 41
1.0
 10
37.50412500781749
 20
273.1337962926555
 30
0.0
 41
1.0
  0
SPLINE
  5
345
330
70
100
AcDbEntity
  8
Visible
100
AcDbSpline
210
0.0
220
0.0
230
1.0
 70
    12
 71
     3
 72
     8
 73
     4
 74
     0
 42
0.000000001
 43
0.0000000001
 40
0.0
 40
0.0
 40
0.0
 40
0.0
 40
1.0
 40
1.0
 40
1.0
 40
1.0
 10
37.36278798021158
 20
263.0989064214391
 30
0.0
 41
1.0
 10
39.94217997273699
 20
263.0989064214391
 30
0.0
 41
1.0
 10
42.20356163131327
 20
264.9716159717136
 30
0.0
 41
1.0
 10
42.48623568652511
 20
267.5510052684586
 30
0.0
 41
1.0
  0
LINE
  5
346
330
70
100
AcDbEntity
  8
Visible
100
AcDbLine
 10
35.596082
 20
263.098906
 30
0.0
 11
37.362788
 21
263.098906
 31
0.0
  0
SPLINE
  5
347
330
70
100
AcDbEntity
  8
Visible
100
AcDbSpline
210
0.0
220
0.0
230
1.0
 70
    12
 71
     3
 72
     8
 73
     4
 74
     0
 42
0.000000001
 43
0.0000000001
 40
0.0
 40
0.0
 40
0.0
 40
0.0
 40
1.0
 40
1.0
 40
1.0
 40
1.0
 10
34.71272882177436
 20
262.9575693938332
 30
0.0
 41
1.0
 10
35.030736459943
 20
263.0635728384823
 30
0.0
 41
1.0
 10
35.34874409811164
 20
263.0989064214391
 30
0.0
 41
1.0
 10
35.59608187458616
 20
263.0989064214391
 30
0.0
 41
1.0
  0
SPLINE
  5
348
330
70
100
AcDbEntity
  8
Visible
100
AcDbSpline
210
0.0
220
0.0
230
1.0
 70
    12
 71
     3
 72
     8
 73
     4
 74
     0
 42
0.000000001
 43
0.0000000001
 40
0.0
 40
0.0
 40
0.0
 40
0.0
 40
1.0
 40
1.0
 40
1.0
 40
1.0
 10
33.93537921361167
 20
262.5688945897509
 30
0.0
 41
1.0
 10
34.14738340712939
 20
262.7102316173568
 30
0.0
 41
1.0
 10
34.43005746234121
 20
262.8515686449627
 30
0.0
 41
1.0
 10
34.71272882177436
 20
262.9575693938332
 30
0.0
 41
1.0
  0
SPLINE
  5
349
330
70
100
AcDbEntity
  8
Visible
100
AcDbSpline
210
0.0
220
0.0
230
1.0
 70
    12
 71
     3
 72
     8
 73
     4
 74
     0
 42
0.000000001
 43
0.0000000001
 40
0.0
 40
0.0
 40
0.0
 40
0.0
 40
1.0
 40
1.0
 40
1.0
 40
1.0
 10
33.15802960544715
 20
262.99290297679
 30
0.0
 41
1.0
 10
33.15802960544715
 20
262.6042281727077
 30
0.0
 41
1.0
 10
33.61737427122171
 20
262.3568877004527
 30
0.0
 41
1.0
 10
33.93537921361167
 20
262.5688945897509
 30
0.0
 41
1.0
  0
LINE
  5
34A
330
70
100
AcDbEntity
  8
Visible
100
AcDbLine
 10
33.171084
 20
266.844322
 30
0.0
 11
33.15803
 21
262.992903
 31
0.0
  0
LINE
  5
34B
330
70
100
AcDbEntity
  8
Visible
100
AcDbLine
 10
33.179348
 20
254.265375
 30
0.0
 11
30.02926
 21
254.265375
 31
0.0
  0
LINE
  5
34C
330
70
100
AcDbEntity
  8
Visible
100
AcDbLine
 10
33.19336
 20
258.39947
 30
0.0
 11
33.179348
 21
254.265375
 31
0.0
  0
SPLINE
  5
34D
330
70
100
AcDbEntity
  8
Visible
100
AcDbSpline
210
0.0
220
0.0
230
1.0
 70
    12
 71
     3
 72
     8
 73
     4
 74
     0
 42
0.000000001
 43
0.0000000001
 40
0.0
 40
0.0
 40
0.0
 40
0.0
 40
1.0
 40
1.0
 40
1.0
 40
1.0
 10
33.82937576896257
 20
258.717477436112
 30
0.0
 41
1.0
 10
33.54670171375074
 20
258.9294816296315
 30
0.0
 41
1.0
 10
33.19336049262529
 20
258.717477436112
 30
0.0
 41
1.0
 10
33.19336049262529
 20
258.3994697979451
 30
0.0
 41
1.0
  0
SPLINE
  5
34E
330
70
100
AcDbEntity
  8
Visible
100
AcDbSpline
210
0.0
220
0.0
230
1.0
 70
    12
 71
     3
 72
     8
 73
     4
 74
     0
 42
0.000000001
 43
0.0000000001
 40
0.0
 40
0.0
 40
0.0
 40
0.0
 40
1.0
 40
1.0
 40
1.0
 40
1.0
 10
35.63141545754297
 20
258.116798438512
 30
0.0
 41
1.0
 10
35.38407768106845
 20
258.116798438512
 30
0.0
 41
1.0
 10
34.60672537712526
 20
258.1521320214688
 30
0.0
 41
1.0
 10
33.82937576896257
 20
258.717477436112
 30
0.0
 41
1.0
  0
LINE
  5
34F
330
70
100
AcDbEntity
  8
Visible
100
AcDbLine
 10
37.504125
 20
258.116798
 30
0.0
 11
35.631415
 21
258.116798
 31
0.0
  0
SPLINE
  5
350
330
70
100
AcDbEntity
  8
Visible
100
AcDbSpline
210
0.0
220
0.0
230
1.0
 70
    12
 71
     3
 72
     8
 73
     4
 74
     0
 42
0.000000001
 43
0.0000000001
 40
0.0
 40
0.0
 40
0.0
 40
0.0
 40
1.0
 40
1.0
 40
1.0
 40
1.0
 10
42.48623568652511
 20
252.5340060664257
 30
0.0
 41
1.0
 10
42.80424332469192
 20
255.5374064459884
 30
0.0
 41
1.0
 10
40.47219180442334
 20
258.116798438512
 30
0.0
 41
1.0
 10
37.50412500781749
 20
258.116798438512
 30
0.0
 41
1.0
  0
SPLINE
  5
351
330
70
100
AcDbEntity
  8
Visible
100
AcDbSpline
210
0.0
220
0.0
230
1.0
 70
    12
 71
     3
 72
     8
 73
     4
 74
     0
 42
0.000000001
 43
0.0000000001
 40
0.0
 40
0.0
 40
0.0
 40
0.0
 40
1.0
 40
1.0
 40
1.0
 40
1.0
 10
37.36278798021158
 20
248.0819072194063
 30
0.0
 41
1.0
 10
39.94217997273699
 20
248.0819072194063
 30
0.0
 41
1.0
 10
42.20356163131327
 20
249.9546167696808
 30
0.0
 41
1.0
 10
42.48623568652511
 20
252.5340060664257
 30
0.0
 41
1.0
  0
LINE
  5
352
330
70
100
AcDbEntity
  8
Visible
100
AcDbLine
 10
35.596082
 20
248.081907
 30
0.0
 11
37.362788
 21
248.081907
 31
0.0
  0
SPLINE
  5
353
330
70
100
AcDbEntity
  8
Visible
100
AcDbSpline
210
0.0
220
0.0
230
1.0
 70
    12
 71
     3
 72
     8
 73
     4
 74
     0
 42
0.000000001
 43
0.0000000001
 40
0.0
 40
0.0
 40
0.0
 40
0.0
 40
1.0
 40
1.0
 40
1.0
 40
1.0
 10
34.71272882177436
 20
247.9405701918004
 30
0.0
 41
1.0
 10
35.030736459943
 20
248.0465736364495
 30
0.0
 41
1.0
 10
35.34874409811164
 20
248.0819072194063
 30
0.0
 41
1.0
 10
35.59608187458616
 20
248.0819072194063
 30
0.0
 41
1.0
  0
SPLINE
  5
354
330
70
100
AcDbEntity
  8
Visible
100
AcDbSpline
210
0.0
220
0.0
230
1.0
 70
    12
 71
     3
 72
     8
 73
     4
 74
     0
 42
0.000000001
 43
0.0000000001
 40
0.0
 40
0.0
 40
0.0
 40
0.0
 40
1.0
 40
1.0
 40
1.0
 40
1.0
 10
33.93537921361167
 20
247.5518926919394
 30
0.0
 41
1.0
 10
34.14738340712939
 20
247.6932270237648
 30
0.0
 41
1.0
 10
34.43005746234121
 20
247.8345667471513
 30
0.0
 41
1.0
 10
34.71272882177436
 20
247.9405701918004
 30
0.0
 41
1.0
  0
SPLINE
  5
355
330
70
100
AcDbEntity
  8
Visible
100
AcDbSpline
210
0.0
220
0.0
230
1.0
 70
    12
 71
     3
 72
     8
 73
     4
 74
     0
 42
0.000000001
 43
0.0000000001
 40
0.0
 40
0.0
 40
0.0
 40
0.0
 40
1.0
 40
1.0
 40
1.0
 40
1.0
 10
33.15802960544715
 20
247.9759010789767
 30
0.0
 41
1.0
 10
33.15802960544715
 20
247.5872235791158
 30
0.0
 41
1.0
 10
33.61737427122171
 20
247.3398858026412
 30
0.0
 41
1.0
 10
33.93537921361167
 20
247.5518926919394
 30
0.0
 41
1.0
  0
LINE
  5
356
330
70
100
AcDbEntity
  8
Visible
100
AcDbLine
 10
33.170365
 20
251.615316
 30
0.0
 11
33.15803
 21
247.975901
 31
0.0
  0
LINE
  5
357
330
70
100
AcDbEntity
  8
Visible
100
AcDbLine
 10
33.17803
 20
238.859698
 30
0.0
 11
30.02926
 21
238.859698
 31
0.0
  0
LINE
  5
358
330
70
100
AcDbEntity
  8
Visible
100
AcDbLine
 10
33.19336
 20
243.382471
 30
0.0
 11
33.17803
 21
238.859698
 31
0.0
  0
SPLINE
  5
359
330
70
100
AcDbEntity
  8
Visible
100
AcDbSpline
210
0.0
220
0.0
230
1.0
 70
    12
 71
     3
 72
     8
 73
     4
 74
     0
 42
0.000000001
 43
0.0000000001
 40
0.0
 40
0.0
 40
0.0
 40
0.0
 40
1.0
 40
1.0
 40
1.0
 40
1.0
 10
33.82937576896257
 20
243.7004755383004
 30
0.0
 41
1.0
 10
33.54670171375074
 20
243.9124824275987
 30
0.0
 41
1.0
 10
33.19336049262529
 20
243.7004755383004
 30
0.0
 41
1.0
 10
33.19336049262529
 20
243.3824705959105
 30
0.0
 41
1.0
  0
SPLINE
  5
35A
330
70
100
AcDbEntity
  8
Visible
100
AcDbSpline
210
0.0
220
0.0
230
1.0
 70
    12
 71
     3
 72
     8
 73
     4
 74
     0
 42
0.000000001
 43
0.0000000001
 40
0.0
 40
0.0
 40
0.0
 40
0.0
 40
1.0
 40
1.0
 40
1.0
 40
1.0
 10
35.63141545754297
 20
243.0997965406987
 30
0.0
 41
1.0
 10
35.38407768106845
 20
243.0997965406987
 30
0.0
 41
1.0
 10
34.60672537712526
 20
243.1351328194359
 30
0.0
 41
1.0
 10
33.82937576896257
 20
243.7004755383004
 30
0.0
 41
1.0
  0
LINE
  5
35B
330
70
100
AcDbEntity
  8
Visible
100
AcDbLine
 10
37.504125
 20
243.099797
 30
0.0
 11
35.631415
 21
243.099797
 31
0.0
  0
SPLINE
  5
35C
330
70
100
AcDbEntity
  8
Visible
100
AcDbSpline
210
0.0
220
0.0
230
1.0
 70
    12
 71
     3
 72
     8
 73
     4
 74
     0
 42
0.000000001
 43
0.0000000001
 40
0.0
 40
0.0
 40
0.0
 40
0.0
 40
1.0
 40
1.0
 40
1.0
 40
1.0
 10
42.48623568652511
 20
237.5170041686124
 30
0.0
 41
1.0
 10
42.80424332469192
 20
240.5204045481751
 30
0.0
 41
1.0
 10
40.47219180442334
 20
243.0997965406987
 30
0.0
 41
1.0
 10
37.50412500781749
 20
243.0997965406987
 30
0.0
 41
1.0
  0
SPLINE
  5
35D
330
70
100
AcDbEntity
  8
Visible
100
AcDbSpline
210
0.0
220
0.0
230
1.0
 70
    12
 71
     3
 72
     8
 73
     4
 74
     0
 42
0.000000001
 43
0.0000000001
 40
0.0
 40
0.0
 40
0.0
 40
0.0
 40
1.0
 40
1.0
 40
1.0
 40
1.0
 10
37.36278798021158
 20
233.0649026258143
 30
0.0
 41
1.0
 10
39.94217997273699
 20
233.0649026258143
 30
0.0
 41
1.0
 10
42.20356163131327
 20
234.9376121760888
 30
0.0
 41
1.0
 10
42.48623568652511
 20
237.5170041686124
 30
0.0
 41
1.0
  0
LINE
  5
35E
330
70
100
AcDbEntity
  8
Visible
100
AcDbLine
 10
35.596082
 20
233.064903
 30
0.0
 11
37.362788
 21
233.064903
 31
0.0
  0
SPLINE
  5
35F
330
70
100
AcDbEntity
  8
Visible
100
AcDbSpline
210
0.0
220
0.0
230
1.0
 70
    12
 71
     3
 72
     8
 73
     4
 74
     0
 42
0.000000001
 43
0.0000000001
 40
0.0
 40
0.0
 40
0.0
 40
0.0
 40
1.0
 40
1.0
 40
1.0
 40
1.0
 10
34.71272882177436
 20
232.9235682939871
 30
0.0
 41
1.0
 10
35.030736459943
 20
233.0295717386361
 30
0.0
 41
1.0
 10
35.34874409811164
 20
233.0649026258143
 30
0.0
 41
1.0
 10
35.59608187458616
 20
233.0649026258143
 30
0.0
 41
1.0
  0
SPLINE
  5
360
330
70
100
AcDbEntity
  8
Visible
100
AcDbSpline
210
0.0
220
0.0
230
1.0
 70
    12
 71
     3
 72
     8
 73
     4
 74
     0
 42
0.000000001
 43
0.0000000001
 40
0.0
 40
0.0
 40
0.0
 40
0.0
 40
1.0
 40
1.0
 40
1.0
 40
1.0
 10
33.93537921361167
 20
232.5348907941261
 30
0.0
 41
1.0
 10
34.14738340712939
 20
232.6762251259534
 30
0.0
 41
1.0
 10
34.43005746234121
 20
232.8175648493379
 30
0.0
 41
1.0
 10
34.71272882177436
 20
232.9235682939871
 30
0.0
 41
1.0
  0
SPLINE
  5
361
330
70
100
AcDbEntity
  8
Visible
100
AcDbSpline
210
0.0
220
0.0
230
1.0
 70
    12
 71
     3
 72
     8
 73
     4
 74
     0
 42
0.000000001
 43
0.0000000001
 40
0.0
 40
0.0
 40
0.0
 40
0.0
 40
1.0
 40
1.0
 40
1.0
 40
1.0
 10
33.15802960544715
 20
232.9588991811652
 30
0.0
 41
1.0
 10
33.15802960544715
 20
232.5702216813042
 30
0.0
 41
1.0
 10
33.61737427122171
 20
232.3228839048279
 30
0.0
 41
1.0
 10
33.93537921361167
 20
232.5348907941261
 30
0.0
 41
1.0
  0
LINE
  5
362
330
70
100
AcDbEntity
  8
Visible
100
AcDbLine
 10
33.169048
 20
236.209638
 30
0.0
 11
33.15803
 21
232.958899
 31
0.0
  0
LINE
  5
363
330
70
100
AcDbEntity
  8
Visible
100
AcDbLine
 10
33.179827
 20
224.372708
 30
0.0
 11
30.02926
 21
224.372708
 31
0.0
  0
LINE
  5
364
330
70
100
AcDbEntity
  8
Visible
100
AcDbLine
 10
33.19336
 20
228.365469
 30
0.0
 11
33.179827
 21
224.372708
 31
0.0
  0
SPLINE
  5
365
330
70
100
AcDbEntity
  8
Visible
100
AcDbSpline
210
0.0
220
0.0
230
1.0
 70
    12
 71
     3
 72
     8
 73
     4
 74
     0
 42
0.000000001
 43
0.0000000001
 40
0.0
 40
0.0
 40
0.0
 40
0.0
 40
1.0
 40
1.0
 40
1.0
 40
1.0
 10
33.82937576896257
 20
228.6834736404872
 30
0.0
 41
1.0
 10
33.54670171375074
 20
228.8954805297854
 30
0.0
 41
1.0
 10
33.19336049262529
 20
228.6834736404872
 30
0.0
 41
1.0
 10
33.19336049262529
 20
228.365468698099
 30
0.0
 41
1.0
  0
SPLINE
  5
366
330
70
100
AcDbEntity
  8
Visible
100
AcDbSpline
210
0.0
220
0.0
230
1.0
 70
    12
 71
     3
 72
     8
 73
     4
 74
     0
 42
0.000000001
 43
0.0000000001
 40
0.0
 40
0.0
 40
0.0
 40
0.0
 40
1.0
 40
1.0
 40
1.0
 40
1.0
 10
35.63141545754297
 20
228.0827946428872
 30
0.0
 41
1.0
 10
35.38407768106845
 20
228.0827946428872
 30
0.0
 41
1.0
 10
34.60672537712526
 20
228.1181309216226
 30
0.0
 41
1.0
 10
33.82937576896257
 20
228.6834736404872
 30
0.0
 41
1.0
  0
LINE
  5
367
330
70
100
AcDbEntity
  8
Visible
100
AcDbLine
 10
37.504125
 20
228.082795
 30
0.0
 11
35.631415
 21
228.082795
 31
0.0
  0
SPLINE
  5
368
330
70
100
AcDbEntity
  8
Visible
100
AcDbSpline
210
0.0
220
0.0
230
1.0
 70
    12
 71
     3
 72
     8
 73
     4
 74
     0
 42
0.000000001
 43
0.0000000001
 40
0.0
 40
0.0
 40
0.0
 40
0.0
 40
1.0
 40
1.0
 40
1.0
 40
1.0
 10
42.48623568652511
 20
222.5000022708009
 30
0.0
 41
1.0
 10
42.80424332469192
 20
225.5034026503618
 30
0.0
 41
1.0
 10
40.47219180442334
 20
228.0827946428872
 30
0.0
 41
1.0
 10
37.50412500781749
 20
228.0827946428872
 30
0.0
 41
1.0
  0
SPLINE
  5
369
330
70
100
AcDbEntity
  8
Visible
100
AcDbSpline
210
0.0
220
0.0
230
1.0
 70
    12
 71
     3
 72
     8
 73
     4
 74
     0
 42
0.000000001
 43
0.0000000001
 40
0.0
 40
0.0
 40
0.0
 40
0.0
 40
1.0
 40
1.0
 40
1.0
 40
1.0
 10
37.36278798021158
 20
218.0479007280009
 30
0.0
 41
1.0
 10
39.94217997273699
 20
218.0479007280009
 30
0.0
 41
1.0
 10
42.20356163131327
 20
219.9206102782755
 30
0.0
 41
1.0
 10
42.48623568652511
 20
222.5000022708009
 30
0.0
 41
1.0
  0
LINE
  5
36A
330
70
100
AcDbEntity
  8
Visible
100
AcDbLine
 10
35.596082
 20
218.047901
 30
0.0
 11
37.362788
 21
218.047901
 31
0.0
  0
SPLINE
  5
36B
330
70
100
AcDbEntity
  8
Visible
100
AcDbSpline
210
0.0
220
0.0
230
1.0
 70
    12
 71
     3
 72
     8
 73
     4
 74
     0
 42
0.000000001
 43
0.0000000001
 40
0.0
 40
0.0
 40
0.0
 40
0.0
 40
1.0
 40
1.0
 40
1.0
 40
1.0
 10
34.71272882177436
 20
217.9065663961755
 30
0.0
 41
1.0
 10
35.030736459943
 20
218.0125698408247
 30
0.0
 41
1.0
 10
35.34874409811164
 20
218.0479007280009
 30
0.0
 41
1.0
 10
35.59608187458616
 20
218.0479007280009
 30
0.0
 41
1.0
  0
SPLINE
  5
36C
330
70
100
AcDbEntity
  8
Visible
100
AcDbSpline
210
0.0
220
0.0
230
1.0
 70
    12
 71
     3
 72
     8
 73
     4
 74
     0
 42
0.000000001
 43
0.0000000001
 40
0.0
 40
0.0
 40
0.0
 40
0.0
 40
1.0
 40
1.0
 40
1.0
 40
1.0
 10
33.93537921361167
 20
217.5178888963146
 30
0.0
 41
1.0
 10
34.14738340712939
 20
217.65922322814
 30
0.0
 41
1.0
 10
34.43005746234121
 20
217.8005629515264
 30
0.0
 41
1.0
 10
34.71272882177436
 20
217.9065663961755
 30
0.0
 41
1.0
  0
SPLINE
  5
36D
330
70
100
AcDbEntity
  8
Visible
100
AcDbSpline
210
0.0
220
0.0
230
1.0
 70
    12
 71
     3
 72
     8
 73
     4
 74
     0
 42
0.000000001
 43
0.0000000001
 40
0.0
 40
0.0
 40
0.0
 40
0.0
 40
1.0
 40
1.0
 40
1.0
 40
1.0
 10
33.15802960544715
 20
217.9418972833519
 30
0.0
 41
1.0
 10
33.15802960544715
 20
217.5532197834909
 30
0.0
 41
1.0
 10
33.61737427122171
 20
217.3058820070146
 30
0.0
 41
1.0
 10
33.93537921361167
 20
217.5178888963146
 30
0.0
 41
1.0
  0
LINE
  5
36E
330
70
100
AcDbEntity
  8
Visible
100
AcDbLine
 10
33.170845
 20
221.722648
 30
0.0
 11
33.15803
 21
217.941897
 31
0.0
  0
LINE
  5
36F
330
70
100
AcDbEntity
  8
Visible
100
AcDbLine
 10
33.180186
 20
209.426374
 30
0.0
 11
30.02926
 21
209.426374
 31
0.0
  0
LINE
  5
370
330
70
100
AcDbEntity
  8
Visible
100
AcDbLine
 10
33.19336
 20
213.313125
 30
0.0
 11
33.180186
 21
209.426374
 31
0.0
  0
SPLINE
  5
371
330
70
100
AcDbEntity
  8
Visible
100
AcDbSpline
210
0.0
220
0.0
230
1.0
 70
    12
 71
     3
 72
     8
 73
     4
 74
     0
 42
0.000000001
 43
0.0000000001
 40
0.0
 40
0.0
 40
0.0
 40
0.0
 40
1.0
 40
1.0
 40
1.0
 40
1.0
 10
33.82937576896257
 20
213.6311300723792
 30
0.0
 41
1.0
 10
33.54670171375074
 20
213.8431369616792
 30
0.0
 41
1.0
 10
33.19336049262529
 20
213.6311300723792
 30
0.0
 41
1.0
 10
33.19336049262529
 20
213.313125129991
 30
0.0
 41
1.0
  0
SPLINE
  5
372
330
70
100
AcDbEntity
  8
Visible
100
AcDbSpline
210
0.0
220
0.0
230
1.0
 70
    12
 71
     3
 72
     8
 73
     4
 74
     0
 42
0.000000001
 43
0.0000000001
 40
0.0
 40
0.0
 40
0.0
 40
0.0
 40
1.0
 40
1.0
 40
1.0
 40
1.0
 10
35.63141545754297
 20
213.0304510747792
 30
0.0
 41
1.0
 10
35.38407768106845
 20
213.0304510747792
 30
0.0
 41
1.0
 10
34.60672537712526
 20
213.0657873535147
 30
0.0
 41
1.0
 10
33.82937576896257
 20
213.6311300723792
 30
0.0
 41
1.0
  0
LINE
  5
373
330
70
100
AcDbEntity
  8
Visible
100
AcDbLine
 10
37.504125
 20
213.030451
 30
0.0
 11
35.631415
 21
213.030451
 31
0.0
  0
SPLINE
  5
374
330
70
100
AcDbEntity
  8
Visible
100
AcDbSpline
210
0.0
220
0.0
230
1.0
 70
    12
 71
     3
 72
     8
 73
     4
 74
     0
 42
0.000000001
 43
0.0000000001
 40
0.0
 40
0.0
 40
0.0
 40
0.0
 40
1.0
 40
1.0
 40
1.0
 40
1.0
 10
42.48623568652511
 20
207.4476587026929
 30
0.0
 41
1.0
 10
42.80424332469192
 20
210.4510590822538
 30
0.0
 41
1.0
 10
40.47219180442334
 20
213.0304510747792
 30
0.0
 41
1.0
 10
37.50412500781749
 20
213.0304510747792
 30
0.0
 41
1.0
  0
SPLINE
  5
375
330
70
100
AcDbEntity
  8
Visible
100
AcDbSpline
210
0.0
220
0.0
230
1.0
 70
    12
 71
     3
 72
     8
 73
     4
 74
     0
 42
0.000000001
 43
0.0000000001
 40
0.0
 40
0.0
 40
0.0
 40
0.0
 40
1.0
 40
1.0
 40
1.0
 40
1.0
 10
37.36278798021158
 20
202.995557159893
 30
0.0
 41
1.0
 10
39.94217997273699
 20
202.995557159893
 30
0.0
 41
1.0
 10
42.20356163131327
 20
204.8682667101675
 30
0.0
 41
1.0
 10
42.48623568652511
 20
207.4476587026929
 30
0.0
 41
1.0
  0
LINE
  5
376
330
70
100
AcDbEntity
  8
Visible
100
AcDbLine
 10
35.596082
 20
202.995557
 30
0.0
 11
37.362788
 21
202.995557
 31
0.0
  0
SPLINE
  5
377
330
70
100
AcDbEntity
  8
Visible
100
AcDbSpline
210
0.0
220
0.0
230
1.0
 70
    12
 71
     3
 72
     8
 73
     4
 74
     0
 42
0.000000001
 43
0.0000000001
 40
0.0
 40
0.0
 40
0.0
 40
0.0
 40
1.0
 40
1.0
 40
1.0
 40
1.0
 10
34.71272882177436
 20
202.8542228280676
 30
0.0
 41
1.0
 10
35.030736459943
 20
202.9602262727167
 30
0.0
 41
1.0
 10
35.34874409811164
 20
202.995557159893
 30
0.0
 41
1.0
 10
35.59608187458616
 20
202.995557159893
 30
0.0
 41
1.0
  0
SPLINE
  5
378
330
70
100
AcDbEntity
  8
Visible
100
AcDbSpline
210
0.0
220
0.0
230
1.0
 70
    12
 71
     3
 72
     8
 73
     4
 74
     0
 42
0.000000001
 43
0.0000000001
 40
0.0
 40
0.0
 40
0.0
 40
0.0
 40
1.0
 40
1.0
 40
1.0
 40
1.0
 10
33.93537921361167
 20
202.4655453282067
 30
0.0
 41
1.0
 10
34.14738340712939
 20
202.6068796600321
 30
0.0
 41
1.0
 10
34.43005746234121
 20
202.7482139918593
 30
0.0
 41
1.0
 10
34.71272882177436
 20
202.8542228280676
 30
0.0
 41
1.0
  0
SPLINE
  5
379
330
70
100
AcDbEntity
  8
Visible
100
AcDbSpline
210
0.0
220
0.0
230
1.0
 70
    12
 71
     3
 72
     8
 73
     4
 74
     0
 42
0.000000001
 43
0.0000000001
 40
0.0
 40
0.0
 40
0.0
 40
0.0
 40
1.0
 40
1.0
 40
1.0
 40
1.0
 10
33.15802960544715
 20
202.8895591068031
 30
0.0
 41
1.0
 10
33.15802960544715
 20
202.5008816069421
 30
0.0
 41
1.0
 10
33.61737427122171
 20
202.2535492220249
 30
0.0
 41
1.0
 10
33.93537921361167
 20
202.4655453282067
 30
0.0
 41
1.0
  0
LINE
  5
37A
330
70
100
AcDbEntity
  8
Visible
100
AcDbLine
 10
33.171204
 20
206.776315
 30
0.0
 11
33.15803
 21
202.889559
 31
0.0
  0
LINE
  5
37B
330
70
100
AcDbEntity
  8
Visible
100
AcDbLine
 10
33.179348
 20
194.162033
 30
0.0
 11
30.02926
 21
194.162033
 31
0.0
  0
LINE
  5
37C
330
70
100
AcDbEntity
  8
Visible
100
AcDbLine
 10
33.19336
 20
198.296123
 30
0.0
 11
33.179348
 21
194.162033
 31
0.0
  0
SPLINE
  5
37D
330
70
100
AcDbEntity
  8
Visible
100
AcDbSpline
210
0.0
220
0.0
230
1.0
 70
    12
 71
     3
 72
     8
 73
     4
 74
     0
 42
0.000000001
 43
0.0000000001
 40
0.0
 40
0.0
 40
0.0
 40
0.0
 40
1.0
 40
1.0
 40
1.0
 40
1.0
 10
33.82937576896257
 20
198.6141281745677
 30
0.0
 41
1.0
 10
33.54670171375074
 20
198.8261350638659
 30
0.0
 41
1.0
 10
33.19336049262529
 20
198.6141281745677
 30
0.0
 41
1.0
 10
33.19336049262529
 20
198.2961232321777
 30
0.0
 41
1.0
  0
SPLINE
  5
37E
330
70
100
AcDbEntity
  8
Visible
100
AcDbSpline
210
0.0
220
0.0
230
1.0
 70
    12
 71
     3
 72
     8
 73
     4
 74
     0
 42
0.000000001
 43
0.0000000001
 40
0.0
 40
0.0
 40
0.0
 40
0.0
 40
1.0
 40
1.0
 40
1.0
 40
1.0
 10
35.63141545754297
 20
198.0134437854067
 30
0.0
 41
1.0
 10
35.38407768106845
 20
198.0134437854067
 30
0.0
 41
1.0
 10
34.60672537712526
 20
198.048780064144
 30
0.0
 41
1.0
 10
33.82937576896257
 20
198.6141281745677
 30
0.0
 41
1.0
  0
LINE
  5
37F
330
70
100
AcDbEntity
  8
Visible
100
AcDbLine
 10
37.504125
 20
198.013444
 30
0.0
 11
35.631415
 21
198.013444
 31
0.0
  0
SPLINE
  5
380
330
70
100
AcDbEntity
  8
Visible
100
AcDbSpline
210
0.0
220
0.0
230
1.0
 70
    12
 71
     3
 72
     8
 73
     4
 74
     0
 42
0.000000001
 43
0.0000000001
 40
0.0
 40
0.0
 40
0.0
 40
0.0
 40
1.0
 40
1.0
 40
1.0
 40
1.0
 10
42.48623568652511
 20
192.4306568048796
 30
0.0
 41
1.0
 10
42.80424332469192
 20
195.4340571844423
 30
0.0
 41
1.0
 10
40.47219180442334
 20
198.0134437854067
 30
0.0
 41
1.0
 10
37.50412500781749
 20
198.0134437854067
 30
0.0
 41
1.0
  0
SPLINE
  5
381
330
70
100
AcDbEntity
  8
Visible
100
AcDbSpline
210
0.0
220
0.0
230
1.0
 70
    12
 71
     3
 72
     8
 73
     4
 74
     0
 42
0.000000001
 43
0.0000000001
 40
0.0
 40
0.0
 40
0.0
 40
0.0
 40
1.0
 40
1.0
 40
1.0
 40
1.0
 10
37.36278798021158
 20
187.9785552620815
 30
0.0
 41
1.0
 10
39.94217997273699
 20
187.9785552620815
 30
0.0
 41
1.0
 10
42.20356163131327
 20
189.8512594207968
 30
0.0
 41
1.0
 10
42.48623568652511
 20
192.4306568048796
 30
0.0
 41
1.0
  0
LINE
  5
382
330
70
100
AcDbEntity
  8
Visible
100
AcDbLine
 10
35.596082
 20
187.978555
 30
0.0
 11
37.362788
 21
187.978555
 31
0.0
  0
SPLINE
  5
383
330
70
100
AcDbEntity
  8
Visible
100
AcDbSpline
210
0.0
220
0.0
230
1.0
 70
    12
 71
     3
 72
     8
 73
     4
 74
     0
 42
0.000000001
 43
0.0000000001
 40
0.0
 40
0.0
 40
0.0
 40
0.0
 40
1.0
 40
1.0
 40
1.0
 40
1.0
 10
34.71272882177436
 20
187.8372209302542
 30
0.0
 41
1.0
 10
35.030736459943
 20
187.9432189833442
 30
0.0
 41
1.0
 10
35.34874409811164
 20
187.9785552620815
 30
0.0
 41
1.0
 10
35.59608187458616
 20
187.9785552620815
 30
0.0
 41
1.0
  0
SPLINE
  5
384
330
70
100
AcDbEntity
  8
Visible
100
AcDbSpline
210
0.0
220
0.0
230
1.0
 70
    12
 71
     3
 72
     8
 73
     4
 74
     0
 42
0.000000001
 43
0.0000000001
 40
0.0
 40
0.0
 40
0.0
 40
0.0
 40
1.0
 40
1.0
 40
1.0
 40
1.0
 10
33.93537921361167
 20
187.4485434303933
 30
0.0
 41
1.0
 10
34.14738340712939
 20
187.5898777622187
 30
0.0
 41
1.0
 10
34.43005746234121
 20
187.731212094046
 30
0.0
 41
1.0
 10
34.71272882177436
 20
187.8372209302542
 30
0.0
 41
1.0
  0
SPLINE
  5
385
330
70
100
AcDbEntity
  8
Visible
100
AcDbSpline
210
0.0
220
0.0
230
1.0
 70
    12
 71
     3
 72
     8
 73
     4
 74
     0
 42
0.000000001
 43
0.0000000001
 40
0.0
 40
0.0
 40
0.0
 40
0.0
 40
1.0
 40
1.0
 40
1.0
 40
1.0
 10
33.15802960544715
 20
187.8725572089897
 30
0.0
 41
1.0
 10
33.15802960544715
 20
187.4838797091288
 30
0.0
 41
1.0
 10
33.61737427122171
 20
187.2365473242134
 30
0.0
 41
1.0
 10
33.93537921361167
 20
187.4485434303933
 30
0.0
 41
1.0
  0
LINE
  5
386
330
70
100
AcDbEntity
  8
Visible
100
AcDbLine
 10
33.170365
 20
191.511974
 30
0.0
 11
33.15803
 21
187.872557
 31
0.0
  0
LINE
  5
387
330
70
100
AcDbEntity
  8
Visible
100
AcDbLine
 10
33.179827
 20
179.286368
 30
0.0
 11
30.02926
 21
179.286368
 31
0.0
  0
LINE
  5
388
330
70
100
AcDbEntity
  8
Visible
100
AcDbLine
 10
33.19336
 20
183.279121
 30
0.0
 11
33.179827
 21
179.286368
 31
0.0
  0
SPLINE
  5
389
330
70
100
AcDbEntity
  8
Visible
100
AcDbSpline
210
0.0
220
0.0
230
1.0
 70
    12
 71
     3
 72
     8
 73
     4
 74
     0
 42
0.000000001
 43
0.0000000001
 40
0.0
 40
0.0
 40
0.0
 40
0.0
 40
1.0
 40
1.0
 40
1.0
 40
1.0
 10
33.82937576896257
 20
183.5971262767543
 30
0.0
 41
1.0
 10
33.54670171375074
 20
183.8091331660525
 30
0.0
 41
1.0
 10
33.19336049262529
 20
183.5971262767543
 30
0.0
 41
1.0
 10
33.19336049262529
 20
183.2791213343662
 30
0.0
 41
1.0
  0
SPLINE
  5
38A
330
70
100
AcDbEntity
  8
Visible
100
AcDbSpline
210
0.0
220
0.0
230
1.0
 70
    12
 71
     3
 72
     8
 73
     4
 74
     0
 42
0.000000001
 43
0.0000000001
 40
0.0
 40
0.0
 40
0.0
 40
0.0
 40
1.0
 40
1.0
 40
1.0
 40
1.0
 10
35.63141545754297
 20
182.9964418875952
 30
0.0
 41
1.0
 10
35.38407768106845
 20
182.9964418875952
 30
0.0
 41
1.0
 10
34.60672537712526
 20
183.0317781663307
 30
0.0
 41
1.0
 10
33.82937576896257
 20
183.5971262767543
 30
0.0
 41
1.0
  0
LINE
  5
38B
330
70
100
AcDbEntity
  8
Visible
100
AcDbLine
 10
37.504125
 20
182.996442
 30
0.0
 11
35.631415
 21
182.996442
 31
0.0
  0
SPLINE
  5
38C
330
70
100
AcDbEntity
  8
Visible
100
AcDbSpline
210
0.0
220
0.0
230
1.0
 70
    12
 71
     3
 72
     8
 73
     4
 74
     0
 42
0.000000001
 43
0.0000000001
 40
0.0
 40
0.0
 40
0.0
 40
0.0
 40
1.0
 40
1.0
 40
1.0
 40
1.0
 10
42.48623568652511
 20
177.4136549070663
 30
0.0
 41
1.0
 10
42.80424332469192
 20
180.4170552866289
 30
0.0
 41
1.0
 10
40.47219180442334
 20
182.9964418875952
 30
0.0
 41
1.0
 10
37.50412500781749
 20
182.9964418875952
 30
0.0
 41
1.0
  0
SPLINE
  5
38D
330
70
100
AcDbEntity
  8
Visible
100
AcDbSpline
210
0.0
220
0.0
230
1.0
 70
    12
 71
     3
 72
     8
 73
     4
 74
     0
 42
0.000000001
 43
0.0000000001
 40
0.0
 40
0.0
 40
0.0
 40
0.0
 40
1.0
 40
1.0
 40
1.0
 40
1.0
 10
37.36278798021158
 20
172.9615533642682
 30
0.0
 41
1.0
 10
39.94217997273699
 20
172.9615533642682
 30
0.0
 41
1.0
 10
42.20356163131327
 20
174.8342575229835
 30
0.0
 41
1.0
 10
42.48623568652511
 20
177.4136549070663
 30
0.0
 41
1.0
  0
LINE
  5
38E
330
70
100
AcDbEntity
  8
Visible
100
AcDbLine
 10
35.596082
 20
172.961553
 30
0.0
 11
37.362788
 21
172.961553
 31
0.0
  0
SPLINE
  5
38F
330
70
100
AcDbEntity
  8
Visible
100
AcDbSpline
210
0.0
220
0.0
230
1.0
 70
    12
 71
     3
 72
     8
 73
     4
 74
     0
 42
0.000000001
 43
0.0000000001
 40
0.0
 40
0.0
 40
0.0
 40
0.0
 40
1.0
 40
1.0
 40
1.0
 40
1.0
 10
34.71272882177436
 20
172.8202190324409
 30
0.0
 41
1.0
 10
35.030736459943
 20
172.9262170855327
 30
0.0
 41
1.0
 10
35.34874409811164
 20
172.9615533642682
 30
0.0
 41
1.0
 10
35.59608187458616
 20
172.9615533642682
 30
0.0
 41
1.0
  0
SPLINE
  5
390
330
70
100
AcDbEntity
  8
Visible
100
AcDbSpline
210
0.0
220
0.0
230
1.0
 70
    12
 71
     3
 72
     8
 73
     4
 74
     0
 42
0.000000001
 43
0.0000000001
 40
0.0
 40
0.0
 40
0.0
 40
0.0
 40
1.0
 40
1.0
 40
1.0
 40
1.0
 10
33.93537921361167
 20
172.43154153258
 30
0.0
 41
1.0
 10
34.14738340712939
 20
172.5728758644072
 30
0.0
 41
1.0
 10
34.43005746234121
 20
172.7142101962327
 30
0.0
 41
1.0
 10
34.71272882177436
 20
172.8202190324409
 30
0.0
 41
1.0
  0
SPLINE
  5
391
330
70
100
AcDbEntity
  8
Visible
100
AcDbSpline
210
0.0
220
0.0
230
1.0
 70
    12
 71
     3
 72
     8
 73
     4
 74
     0
 42
0.000000001
 43
0.0000000001
 40
0.0
 40
0.0
 40
0.0
 40
0.0
 40
1.0
 40
1.0
 40
1.0
 40
1.0
 10
33.15802960544715
 20
172.8555553111782
 30
0.0
 41
1.0
 10
33.15802960544715
 20
172.4668778113173
 30
0.0
 41
1.0
 10
33.61737427122171
 20
172.2195454264001
 30
0.0
 41
1.0
 10
33.93537921361167
 20
172.43154153258
 30
0.0
 41
1.0
  0
LINE
  5
392
330
70
100
AcDbEntity
  8
Visible
100
AcDbLine
 10
33.170845
 20
176.636309
 30
0.0
 11
33.15803
 21
172.855555
 31
0.0
  0
LINE
  5
393
330
70
100
AcDbEntity
  8
Visible
100
AcDbLine
 10
33.180665
 20
164.516705
 30
0.0
 11
30.02926
 21
164.516705
 31
0.0
  0
LINE
  5
394
330
70
100
AcDbEntity
  8
Visible
100
AcDbLine
 10
33.19336
 20
168.262119
 30
0.0
 11
33.180665
 21
164.516705
 31
0.0
  0
SPLINE
  5
395
330
70
100
AcDbEntity
  8
Visible
100
AcDbSpline
210
0.0
220
0.0
230
1.0
 70
    12
 71
     3
 72
     8
 73
     4
 74
     0
 42
0.000000001
 43
0.0000000001
 40
0.0
 40
0.0
 40
0.0
 40
0.0
 40
1.0
 40
1.0
 40
1.0
 40
1.0
 10
33.82937576896257
 20
168.580124378941
 30
0.0
 41
1.0
 10
33.54670171375074
 20
168.792131268241
 30
0.0
 41
1.0
 10
33.19336049262529
 20
168.580124378941
 30
0.0
 41
1.0
 10
33.19336049262529
 20
168.2621194365529
 30
0.0
 41
1.0
  0
SPLINE
  5
396
330
70
100
AcDbEntity
  8
Visible
100
AcDbSpline
210
0.0
220
0.0
230
1.0
 70
    12
 71
     3
 72
     8
 73
     4
 74
     0
 42
0.000000001
 43
0.0000000001
 40
0.0
 40
0.0
 40
0.0
 40
0.0
 40
1.0
 40
1.0
 40
1.0
 40
1.0
 10
35.63141545754297
 20
167.9794399897819
 30
0.0
 41
1.0
 10
35.38407768106845
 20
167.9794399897819
 30
0.0
 41
1.0
 10
34.60672537712526
 20
168.0147762685173
 30
0.0
 41
1.0
 10
33.82937576896257
 20
168.580124378941
 30
0.0
 41
1.0
  0
LINE
  5
397
330
70
100
AcDbEntity
  8
Visible
100
AcDbLine
 10
37.504125
 20
167.97944
 30
0.0
 11
35.631415
 21
167.97944
 31
0.0
  0
SPLINE
  5
398
330
70
100
AcDbEntity
  8
Visible
100
AcDbSpline
210
0.0
220
0.0
230
1.0
 70
    12
 71
     3
 72
     8
 73
     4
 74
     0
 42
0.000000001
 43
0.0000000001
 40
0.0
 40
0.0
 40
0.0
 40
0.0
 40
1.0
 40
1.0
 40
1.0
 40
1.0
 10
42.48623568652511
 20
162.3966530092548
 30
0.0
 41
1.0
 10
42.80424332469192
 20
165.4000533888174
 30
0.0
 41
1.0
 10
40.47219180442334
 20
167.9794399897819
 30
0.0
 41
1.0
 10
37.50412500781749
 20
167.9794399897819
 30
0.0
 41
1.0
  0
SPLINE
  5
399
330
70
100
AcDbEntity
  8
Visible
100
AcDbSpline
210
0.0
220
0.0
230
1.0
 70
    12
 71
     3
 72
     8
 73
     4
 74
     0
 42
0.000000001
 43
0.0000000001
 40
0.0
 40
0.0
 40
0.0
 40
0.0
 40
1.0
 40
1.0
 40
1.0
 40
1.0
 10
37.36278798021158
 20
157.9445514664548
 30
0.0
 41
1.0
 10
39.94217997273699
 20
157.9445514664548
 30
0.0
 41
1.0
 10
42.20356163131327
 20
159.8172556251702
 30
0.0
 41
1.0
 10
42.48623568652511
 20
162.3966530092548
 30
0.0
 41
1.0
  0
LINE
  5
39A
330
70
100
AcDbEntity
  8
Visible
100
AcDbLine
 10
35.596082
 20
157.944551
 30
0.0
 11
37.362788
 21
157.944551
 31
0.0
  0
SPLINE
  5
39B
330
70
100
AcDbEntity
  8
Visible
100
AcDbSpline
210
0.0
220
0.0
230
1.0
 70
    12
 71
     3
 72
     8
 73
     4
 74
     0
 42
0.000000001
 43
0.0000000001
 40
0.0
 40
0.0
 40
0.0
 40
0.0
 40
1.0
 40
1.0
 40
1.0
 40
1.0
 10
34.71272882177436
 20
157.8032171346294
 30
0.0
 41
1.0
 10
35.030736459943
 20
157.9092151877194
 30
0.0
 41
1.0
 10
35.34874409811164
 20
157.9445514664548
 30
0.0
 41
1.0
 10
35.59608187458616
 20
157.9445514664548
 30
0.0
 41
1.0
  0
SPLINE
  5
39C
330
70
100
AcDbEntity
  8
Visible
100
AcDbSpline
210
0.0
220
0.0
230
1.0
 70
    12
 71
     3
 72
     8
 73
     4
 74
     0
 42
0.000000001
 43
0.0000000001
 40
0.0
 40
0.0
 40
0.0
 40
0.0
 40
1.0
 40
1.0
 40
1.0
 40
1.0
 10
33.93537921361167
 20
157.4145396347685
 30
0.0
 41
1.0
 10
34.14738340712939
 20
157.5558739665939
 30
0.0
 41
1.0
 10
34.43005746234121
 20
157.6972082984211
 30
0.0
 41
1.0
 10
34.71272882177436
 20
157.8032171346294
 30
0.0
 41
1.0
  0
SPLINE
  5
39D
330
70
100
AcDbEntity
  8
Visible
100
AcDbSpline
210
0.0
220
0.0
230
1.0
 70
    12
 71
     3
 72
     8
 73
     4
 74
     0
 42
0.000000001
 43
0.0000000001
 40
0.0
 40
0.0
 40
0.0
 40
0.0
 40
1.0
 40
1.0
 40
1.0
 40
1.0
 10
33.15802960544715
 20
157.8385534133649
 30
0.0
 41
1.0
 10
33.15802960544715
 20
157.449875913504
 30
0.0
 41
1.0
 10
33.61737427122171
 20
157.2025435285868
 30
0.0
 41
1.0
 10
33.93537921361167
 20
157.4145396347685
 30
0.0
 41
1.0
  0
LINE
  5
39E
330
70
100
AcDbEntity
  8
Visible
100
AcDbLine
 10
33.171683
 20
161.866645
 30
0.0
 11
33.15803
 21
157.838553
 31
0.0
  0
LINE
  5
39F
330
70
100
AcDbEntity
  8
Visible
100
AcDbLine
 10
33.179228
 20
149.075693
 30
0.0
 11
30.02926
 21
149.075693
 31
0.0
  0
LINE
  5
3A0
330
70
100
AcDbEntity
  8
Visible
100
AcDbLine
 10
33.19336
 20
153.245118
 30
0.0
 11
33.179228
 21
149.075693
 31
0.0
  0
SPLINE
  5
3A1
330
70
100
AcDbEntity
  8
Visible
100
AcDbSpline
210
0.0
220
0.0
230
1.0
 70
    12
 71
     3
 72
     8
 73
     4
 74
     0
 42
0.000000001
 43
0.0000000001
 40
0.0
 40
0.0
 40
0.0
 40
0.0
 40
1.0
 40
1.0
 40
1.0
 40
1.0
 10
33.82937576896257
 20
153.5631224811295
 30
0.0
 41
1.0
 10
33.54670171375074
 20
153.7751293704277
 30
0.0
 41
1.0
 10
33.19336049262529
 20
153.5631224811295
 30
0.0
 41
1.0
 10
33.19336049262529
 20
153.2451175387395
 30
0.0
 41
1.0
  0
SPLINE
  5
3A2
330
70
100
AcDbEntity
  8
Visible
100
AcDbSpline
210
0.0
220
0.0
230
1.0
 70
    12
 71
     3
 72
     8
 73
     4
 74
     0
 42
0.000000001
 43
0.0000000001
 40
0.0
 40
0.0
 40
0.0
 40
0.0
 40
1.0
 40
1.0
 40
1.0
 40
1.0
 10
35.63141545754297
 20
152.9624380919686
 30
0.0
 41
1.0
 10
35.38407768106845
 20
152.9624380919686
 30
0.0
 41
1.0
 10
34.60672537712526
 20
152.9977743707059
 30
0.0
 41
1.0
 10
33.82937576896257
 20
153.5631224811295
 30
0.0
 41
1.0
  0
LINE
  5
3A3
330
70
100
AcDbEntity
  8
Visible
100
AcDbLine
 10
37.504125
 20
152.962438
 30
0.0
 11
35.631415
 21
152.962438
 31
0.0
  0
SPLINE
  5
3A4
330
70
100
AcDbEntity
  8
Visible
100
AcDbSpline
210
0.0
220
0.0
230
1.0
 70
    12
 71
     3
 72
     8
 73
     4
 74
     0
 42
0.000000001
 43
0.0000000001
 40
0.0
 40
0.0
 40
0.0
 40
0.0
 40
1.0
 40
1.0
 40
1.0
 40
1.0
 10
42.48623568652511
 20
147.3796511114415
 30
0.0
 41
1.0
 10
42.80424332469192
 20
150.3830514910041
 30
0.0
 41
1.0
 10
40.47219180442334
 20
152.9624380919686
 30
0.0
 41
1.0
 10
37.50412500781749
 20
152.9624380919686
 30
0.0
 41
1.0
  0
SPLINE
  5
3A5
330
70
100
AcDbEntity
  8
Visible
100
AcDbSpline
210
0.0
220
0.0
230
1.0
 70
    12
 71
     3
 72
     8
 73
     4
 74
     0
 42
0.000000001
 43
0.0000000001
 40
0.0
 40
0.0
 40
0.0
 40
0.0
 40
1.0
 40
1.0
 40
1.0
 40
1.0
 10
37.36278798021158
 20
142.9275495686433
 30
0.0
 41
1.0
 10
39.94217997273699
 20
142.9275495686433
 30
0.0
 41
1.0
 10
42.20356163131327
 20
144.8002537273587
 30
0.0
 41
1.0
 10
42.48623568652511
 20
147.3796511114415
 30
0.0
 41
1.0
  0
LINE
  5
3A6
330
70
100
AcDbEntity
  8
Visible
100
AcDbLine
 10
35.596082
 20
142.92755
 30
0.0
 11
37.362788
 21
142.92755
 31
0.0
  0
SPLINE
  5
3A7
330
70
100
AcDbEntity
  8
Visible
100
AcDbSpline
210
0.0
220
0.0
230
1.0
 70
    12
 71
     3
 72
     8
 73
     4
 74
     0
 42
0.000000001
 43
0.0000000001
 40
0.0
 40
0.0
 40
0.0
 40
0.0
 40
1.0
 40
1.0
 40
1.0
 40
1.0
 10
34.71272882177436
 20
142.7862152368161
 30
0.0
 41
1.0
 10
35.030736459943
 20
142.892213289906
 30
0.0
 41
1.0
 10
35.34874409811164
 20
142.9275495686433
 30
0.0
 41
1.0
 10
35.59608187458616
 20
142.9275495686433
 30
0.0
 41
1.0
  0
SPLINE
  5
3A8
330
70
100
AcDbEntity
  8
Visible
100
AcDbSpline
210
0.0
220
0.0
230
1.0
 70
    12
 71
     3
 72
     8
 73
     4
 74
     0
 42
0.000000001
 43
0.0000000001
 40
0.0
 40
0.0
 40
0.0
 40
0.0
 40
1.0
 40
1.0
 40
1.0
 40
1.0
 10
33.93537921361167
 20
142.3975377369552
 30
0.0
 41
1.0
 10
34.14738340712939
 20
142.5388720687824
 30
0.0
 41
1.0
 10
34.43005746234121
 20
142.6802064006078
 30
0.0
 41
1.0
 10
34.71272882177436
 20
142.7862152368161
 30
0.0
 41
1.0
  0
SPLINE
  5
3A9
330
70
100
AcDbEntity
  8
Visible
100
AcDbSpline
210
0.0
220
0.0
230
1.0
 70
    12
 71
     3
 72
     8
 73
     4
 74
     0
 42
0.000000001
 43
0.0000000001
 40
0.0
 40
0.0
 40
0.0
 40
0.0
 40
1.0
 40
1.0
 40
1.0
 40
1.0
 10
33.15802960544715
 20
142.8215515155534
 30
0.0
 41
1.0
 10
33.15802960544715
 20
142.4328740156925
 30
0.0
 41
1.0
 10
33.61737427122171
 20
142.1855416307753
 30
0.0
 41
1.0
 10
33.93537921361167
 20
142.3975377369552
 30
0.0
 41
1.0
  0
LINE
  5
3AA
330
70
100
AcDbEntity
  8
Visible
100
AcDbLine
 10
33.170246
 20
146.425634
 30
0.0
 11
33.15803
 21
142.821552
 31
0.0
  0
LINE
  5
3AB
330
70
100
AcDbEntity
  8
Visible
100
AcDbLine
 10
19.708305
 20
146.425634
 30
0.0
 11
33.170246
 21
146.425634
 31
0.0
  0
LINE
  5
3AC
330
70
100
AcDbEntity
  8
Visible
100
AcDbLine
 10
19.695728
 20
142.715553
 30
0.0
 11
19.708305
 21
146.425634
 31
0.0
  0
SPLINE
  5
3AD
330
70
100
AcDbEntity
  8
Visible
100
AcDbSpline
210
0.0
220
0.0
230
1.0
 70
    12
 71
     3
 72
     8
 73
     4
 74
     0
 42
0.000000001
 43
0.0000000001
 40
0.0
 40
0.0
 40
0.0
 40
0.0
 40
1.0
 40
1.0
 40
1.0
 40
1.0
 10
19.05971434340426
 20
142.3975485200735
 30
0.0
 41
1.0
 10
19.34238705072676
 20
142.1855416307753
 30
0.0
 41
1.0
 10
19.6957282718522
 20
142.3975485200735
 30
0.0
 41
1.0
 10
19.6957282718522
 20
142.7155534624635
 30
0.0
 41
1.0
  0
SPLINE
  5
3AE
330
70
100
AcDbEntity
  8
Visible
100
AcDbSpline
210
0.0
220
0.0
230
1.0
 70
    12
 71
     3
 72
     8
 73
     4
 74
     0
 42
0.000000001
 43
0.0000000001
 40
0.0
 40
0.0
 40
0.0
 40
0.0
 40
1.0
 40
1.0
 40
1.0
 40
1.0
 10
17.25767465482204
 20
142.9982329092327
 30
0.0
 41
1.0
 10
17.50501377918772
 20
142.9982329092327
 30
0.0
 41
1.0
 10
18.28236473524157
 20
142.9628966304972
 30
0.0
 41
1.0
 10
19.05971434340426
 20
142.3975485200735
 30
0.0
 41
1.0
  0
LINE
  5
3AF
330
70
100
AcDbEntity
  8
Visible
100
AcDbLine
 10
15.384966
 20
142.998233
 30
0.0
 11
17.257675
 21
142.998233
 31
0.0
  0
SPLINE
  5
3B0
330
70
100
AcDbEntity
  8
Visible
100
AcDbSpline
210
0.0
220
0.0
230
1.0
 70
    12
 71
     3
 72
     8
 73
     4
 74
     0
 42
0.000000001
 43
0.0000000001
 40
0.0
 40
0.0
 40
0.0
 40
0.0
 40
1.0
 40
1.0
 40
1.0
 40
1.0
 10
10.40285442584172
 20
148.5810198897616
 30
0.0
 41
1.0
 10
10.08484746161775
 20
145.5776195101989
 30
0.0
 41
1.0
 10
12.41689965583282
 20
142.9982329092327
 30
0.0
 41
1.0
 10
15.384965778494
 20
142.9982329092327
 30
0.0
 41
1.0
  0
SPLINE
  5
3B1
330
70
100
AcDbEntity
  8
Visible
100
AcDbSpline
210
0.0
220
0.0
230
1.0
 70
    12
 71
     3
 72
     8
 73
     4
 74
     0
 42
0.000000001
 43
0.0000000001
 40
0.0
 40
0.0
 40
0.0
 40
0.0
 40
1.0
 40
1.0
 40
1.0
 40
1.0
 10
15.52630213215525
 20
153.0331214325597
 30
0.0
 41
1.0
 10
12.94691148751917
 20
153.0331214325597
 30
0.0
 41
1.0
 10
10.68552747013564
 20
151.1604172738443
 30
0.0
 41
1.0
 10
10.40285442584172
 20
148.5810198897616
 30
0.0
 41
1.0
  0
LINE
  5
3B2
330
70
100
AcDbEntity
  8
Visible
100
AcDbLine
 10
17.293008
 20
153.033121
 30
0.0
 11
15.526302
 21
153.033121
 31
0.0
  0
SPLINE
  5
3B3
330
70
100
AcDbEntity
  8
Visible
100
AcDbSpline
210
0.0
220
0.0
230
1.0
 70
    12
 71
     3
 72
     8
 73
     4
 74
     0
 42
0.000000001
 43
0.0000000001
 40
0.0
 40
0.0
 40
0.0
 40
0.0
 40
1.0
 40
1.0
 40
1.0
 40
1.0
 10
18.17636129059247
 20
153.1744557643869
 30
0.0
 41
1.0
 10
17.85835365242383
 20
153.068457711297
 30
0.0
 41
1.0
 10
17.54034736214453
 20
153.0331214325597
 30
0.0
 41
1.0
 10
17.29300823777885
 20
153.0331214325597
 30
0.0
 41
1.0
  0
SPLINE
  5
3B4
330
70
100
AcDbEntity
  8
Visible
100
AcDbSpline
210
0.0
220
0.0
230
1.0
 70
    12
 71
     3
 72
     8
 73
     4
 74
     0
 42
0.000000001
 43
0.0000000001
 40
0.0
 40
0.0
 40
0.0
 40
0.0
 40
1.0
 40
1.0
 40
1.0
 40
1.0
 10
18.9537122466445
 20
153.5631332642479
 30
0.0
 41
1.0
 10
18.74170805312497
 20
153.4217989324206
 30
0.0
 41
1.0
 10
18.45903399791314
 20
153.2804646005952
 30
0.0
 41
1.0
 10
18.17636129059247
 20
153.1744557643869
 30
0.0
 41
1.0
  0
SPLINE
  5
3B5
330
70
100
AcDbEntity
  8
Visible
100
AcDbSpline
210
0.0
220
0.0
230
1.0
 70
    12
 71
     3
 72
     8
 73
     4
 74
     0
 42
0.000000001
 43
0.0000000001
 40
0.0
 40
0.0
 40
0.0
 40
0.0
 40
1.0
 40
1.0
 40
1.0
 40
1.0
 10
19.73106320269835
 20
153.1391194856496
 30
0.0
 41
1.0
 10
19.73106320269835
 20
153.5277969855106
 30
0.0
 41
1.0
 10
19.27171988481314
 20
153.7751293704277
 30
0.0
 41
1.0
 10
18.9537122466445
 20
153.5631332642479
 30
0.0
 41
1.0
  0
ENDSEC
  0
SECTION
  2
OBJECTS
  0
DICTIONARY
  5
C
330
0
100
AcDbDictionary
281
     1
  3
ACAD_COLOR
350
63
  3
ACAD_DETAILVIEWSTYLE
350
6A
  3
ACAD_GROUP
350
D
  3
ACAD_LAYOUT
350
62
  3
ACAD_MATERIAL
350
10
  3
ACAD_MLEADERSTYLE
350
66
  3
ACAD_MLINESTYLE
350
5F
  3
ACAD_PLOTSETTINGS
350
61
  3
ACAD_PLOTSTYLENAME
350
E
  3
ACAD_SCALELIST
350
42
  3
ACAD_SECTIONVIEWSTYLE
350
68
  3
ACAD_TABLESTYLE
350
64
  3
ACAD_VISUALSTYLE
350
29
  3
ACDB_RECOMPOSE_DATA
350
3C0
  3
AcDbVariableDictionary
350
3B7
  0
DICTIONARY
  5
9E
330
70
100
AcDbDictionary
280
     1
281
     1
  3
ACAD_SORTENTS
360
9F
  0
DICTIONARY
  5
63
102
{ACAD_REACTORS
330
C
102
}
330
C
100
AcDbDictionary
281
     1
  0
DICTIONARY
  5
6A
102
{ACAD_REACTORS
330
C
102
}
330
C
100
AcDbDictionary
281
     1
  3
Imperial24
350
6B
  0
DICTIONARY
  5
D
102
{ACAD_REACTORS
330
C
102
}
330
C
100
AcDbDictionary
281
     1
  0
DICTIONARY
  5
62
102
{ACAD_REACTORS
330
C
102
}
330
C
100
AcDbDictionary
281
     1
  3
Model
350
73
  3
Sheet1
350
6F
  3
Sheet2
350
77
  0
DICTIONARY
  5
10
102
{ACAD_REACTORS
330
C
102
}
330
C
100
AcDbDictionary
281
     1
  3
ByBlock
350
19
  3
ByLayer
350
11
  3
Global
350
21
  0
DICTIONARY
  5
66
102
{ACAD_REACTORS
330
C
102
}
330
C
100
AcDbDictionary
281
     1
  3
Standard
350
67
  0
DICTIONARY
  5
5F
102
{ACAD_REACTORS
330
C
102
}
330
C
100
AcDbDictionary
281
     1
  3
Standard
350
60
  0
DICTIONARY
  5
61
102
{ACAD_REACTORS
330
C
102
}
330
C
100
AcDbDictionary
281
     1
  0
ACDBDICTIONARYWDFLT
  5
E
102
{ACAD_REACTORS
330
C
102
}
330
C
100
AcDbDictionary
281
     1
  3
Normal
350
F
100
AcDbDictionaryWithDefault
340
F
  0
DICTIONARY
  5
42
102
{ACAD_REACTORS
330
C
102
}
330
C
100
AcDbDictionary
281
     1
  3
A0
350
43
  3
A1
350
44
  3
A2
350
45
  3
A3
350
46
  3
A4
350
47
  3
A5
350
48
  3
A6
350
49
  3
A7
350
4A
  3
A8
350
4B
  3
A9
350
4C
  3
B0
350
4D
  3
B1
350
4E
  3
B2
350
4F
  3
B3
350
50
  3
B4
350
51
  3
B5
350
52
  3
B6
350
53
  0
DICTIONARY
  5
68
102
{ACAD_REACTORS
330
C
102
}
330
C
100
AcDbDictionary
281
     1
  3
Imperial24
350
69
  0
DICTIONARY
  5
64
102
{ACAD_REACTORS
330
C
102
}
330
C
100
AcDbDictionary
281
     1
  3
Standard
350
65
  0
DICTIONARY
  5
29
102
{ACAD_REACTORS
330
C
102
}
330
C
100
AcDbDictionary
281
     1
  3
2dWireframe
350
2F
  3
Basic
350
2E
  3
Brighten
350
35
  3
ColorChange
350
39
  3
Conceptual
350
32
  3
Dim
350
34
  3
EdgeColorOff
350
41
  3
Facepattern
350
38
  3
Flat
350
2A
  3
FlatWithEdges
350
2B
  3
Gouraud
350
2C
  3
GouraudWithEdges
350
2D
  3
Hidden
350
31
  3
JitterOff
350
3F
  3
Linepattern
350
37
  3
OverhangOff
350
40
  3
Realistic
350
33
  3
Shaded
350
3E
  3
Shaded with edges
350
3D
  3
Shades of Gray
350
3A
  3
Sketchy
350
3B
  3
Thicken
350
36
  3
Wireframe
350
30
  3
X-Ray
350
3C
  0
XRECORD
  5
3C0
102
{ACAD_REACTORS
330
C
102
}
330
C
100
AcDbXrecord
280
     1
 90
        1
330
65
  0
DICTIONARY
  5
3B7
102
{ACAD_REACTORS
330
C
102
}
330
C
100
AcDbDictionary
281
     1
  3
ANNOALLVISIBLE
350
3BC
  3
CANNOSCALE
350
3BD
  3
CMLEADERSTYLE
350
3B9
  3
CTABLESTYLE
350
3B8
  3
CVIEWDETAILSTYLE
350
3BA
  3
CVIEWSECTIONSTYLE
350
3BB
  0
SORTENTSTABLE
  5
9F
102
{ACAD_REACTORS
330
9E
102
}
330
9E
100
AcDbSortentsTable
330
70
  0
ACDBDETAILVIEWSTYLE
  5
6B
102
{ACAD_XDICTIONARY
360
3C3
102
}
102
{ACAD_REACTORS
330
6A
102
}
330
6A
100
AcDbModelDocViewStyle
 70
     0
  3
Imperial24
290
     0
100
AcDbDetailViewStyle
 70
     0
 71
     0
 90
        3
 71
     1
340
55
 62
   256
 40
0.24
340
0
 62
   256
 40
0.24
300

 40
0.36
280
     3
 71
     2
340
5D
 90
       25
 62
   256
 71
     3
340
55
 62
   256
 40
0.24
 90
        1
 40
0.75
 90
        1
300
%<\AcVar ViewType \f "%tc1">% %<\AcVar ViewDetailId>%\PSCALE %<\AcVar ViewScale \f "%sn">%
 71
     4
340
5D
 90
       25
 62
   256
340
5D
 90
       25
 62
   256
280
     0
  0
LAYOUT
  5
73
102
{ACAD_REACTORS
330
62
102
}
330
62
100
AcDbPlotSettings
  1

  2
AutoCAD PDF (High Quality Print).pc3
  4
ISO_full_bleed_A4_(210.00_x_297.00_MM)
  6

 40
0.0
 41
0.0
 42
0.0
 43
0.0
 44
210.0
 45
297.0
 46
0.0
 47
0.0
 48
0.0
 49
0.0
140
0.0
141
0.0
142
1.0
143
4.254053
 70
 11952
 72
     1
 73
     0
 74
     0
  7

 75
     0
147
0.23507
 76
     0
 77
     2
 78
   300
148
341.673223
149
8.014617
100
AcDbLayout
  1
Model
 70
     1
 71
     0
 10
0.0
 20
0.0
 11
12.0
 21
9.0
 12
0.0
 22
0.0
 32
0.0
 14
0.0
 24
0.0
 34
0.0
 15
0.0
 25
0.0
 35
0.0
146
0.0
 13
0.0
 23
0.0
 33
0.0
 16
1.0
 26
0.0
 36
0.0
 17
0.0
 27
1.0
 37
0.0
 76
     0
330
70
1001
ACAD_PSEXT
1000
AutoCAD PDF (High Quality Print).pc3
1000
DWG To PDF
1000
File
1000

1070
     0
  0
LAYOUT
  5
6F
102
{ACAD_REACTORS
330
62
102
}
330
62
100
AcDbPlotSettings
  1

  2
None
  4

  6

 40
0.0
 41
0.0
 42
0.0
 43
0.0
 44
0.0
 45
0.0
 46
0.0
 47
0.0
 48
0.0
 49
0.0
140
0.0
141
0.0
142
1.0
143
1.0
 70
   688
 72
     0
 73
     0
 74
     5
  7

 75
    16
147
1.0
 76
     0
 77
     2
 78
   300
148
0.0
149
0.0
100
AcDbLayout
  1
Sheet1
 70
     1
 71
     1
 10
0.0
 20
0.0
 11
12.0
 21
9.0
 12
0.0
 22
0.0
 32
0.0
 14
0.0
 24
0.0
 34
0.0
 15
0.0
 25
0.0
 35
0.0
146
0.0
 13
0.0
 23
0.0
 33
0.0
 16
1.0
 26
0.0
 36
0.0
 17
0.0
 27
1.0
 37
0.0
 76
     0
330
6C
  0
LAYOUT
  5
77
102
{ACAD_REACTORS
330
62
102
}
330
62
100
AcDbPlotSettings
  1

  2
None
  4

  6

 40
0.0
 41
0.0
 42
0.0
 43
0.0
 44
0.0
 45
0.0
 46
0.0
 47
0.0
 48
0.0
 49
0.0
140
0.0
141
0.0
142
1.0
143
1.0
 70
   688
 72
     0
 73
     0
 74
     5
  7

 75
    16
147
1.0
 76
     0
 77
     2
 78
   300
148
0.0
149
0.0
100
AcDbLayout
  1
Sheet2
 70
     1
 71
     2
 10
0.0
 20
0.0
 11
12.0
 21
9.0
 12
0.0
 22
0.0
 32
0.0
 14
0.0
 24
0.0
 34
0.0
 15
0.0
 25
0.0
 35
0.0
146
0.0
 13
0.0
 23
0.0
 33
0.0
 16
1.0
 26
0.0
 36
0.0
 17
0.0
 27
1.0
 37
0.0
 76
     0
330
74
  0
MATERIAL
  5
19
102
{ACAD_XDICTIONARY
360
1A
102
}
102
{ACAD_REACTORS
330
10
102
}
330
10
100
AcDbMaterial
  1
ByBlock
 72
     0
 43
0.020833
 43
0.0
 43
0.0
 43
0.0
 43
0.0
 43
0.020833
 43
0.0
 43
0.0
 43
0.0
 43
0.0
 43
1.0
 43
0.0
 43
0.0
 43
0.0
 43
0.0
 43
1.0
 77
     0
 47
0.020833
 47
0.0
 47
0.0
 47
0.0
 47
0.0
 47
0.020833
 47
0.0
 47
0.0
 47
0.0
 47
0.0
 47
1.0
 47
0.0
 47
0.0
 47
0.0
 47
0.0
 47
1.0
171
     0
 49
0.020833
 49
0.0
 49
0.0
 49
0.0
 49
0.0
 49
0.020833
 49
0.0
 49
0.0
 49
0.0
 49
0.0
 49
1.0
 49
0.0
 49
0.0
 49
0.0
 49
0.0
 49
1.0
175
     0
142
0.020833
142
0.0
142
0.0
142
0.0
142
0.0
142
0.020833
142
0.0
142
0.0
142
0.0
142
0.0
142
1.0
142
0.0
142
0.0
142
0.0
142
0.0
142
1.0
179
     0
144
0.020833
144
0.0
144
0.0
144
0.0
144
0.0
144
0.020833
144
0.0
144
0.0
144
0.0
144
0.0
144
1.0
144
0.0
144
0.0
144
0.0
144
0.0
144
1.0
147
0.020833
147
0.0
147
0.0
147
0.0
147
0.0
147
0.020833
147
0.0
147
0.0
147
0.0
147
0.0
147
1.0
147
0.0
147
0.0
147
0.0
147
0.0
147
1.0
  0
MATERIAL
  5
11
102
{ACAD_XDICTIONARY
360
12
102
}
102
{ACAD_REACTORS
330
10
102
}
330
10
100
AcDbMaterial
  1
ByLayer
 72
     0
 43
0.020833
 43
0.0
 43
0.0
 43
0.0
 43
0.0
 43
0.020833
 43
0.0
 43
0.0
 43
0.0
 43
0.0
 43
1.0
 43
0.0
 43
0.0
 43
0.0
 43
0.0
 43
1.0
 77
     0
 47
0.020833
 47
0.0
 47
0.0
 47
0.0
 47
0.0
 47
0.020833
 47
0.0
 47
0.0
 47
0.0
 47
0.0
 47
1.0
 47
0.0
 47
0.0
 47
0.0
 47
0.0
 47
1.0
171
     0
 49
0.020833
 49
0.0
 49
0.0
 49
0.0
 49
0.0
 49
0.020833
 49
0.0
 49
0.0
 49
0.0
 49
0.0
 49
1.0
 49
0.0
 49
0.0
 49
0.0
 49
0.0
 49
1.0
175
     0
142
0.020833
142
0.0
142
0.0
142
0.0
142
0.0
142
0.020833
142
0.0
142
0.0
142
0.0
142
0.0
142
1.0
142
0.0
142
0.0
142
0.0
142
0.0
142
1.0
179
     0
144
0.020833
144
0.0
144
0.0
144
0.0
144
0.0
144
0.020833
144
0.0
144
0.0
144
0.0
144
0.0
144
1.0
144
0.0
144
0.0
144
0.0
144
0.0
144
1.0
147
0.020833
147
0.0
147
0.0
147
0.0
147
0.0
147
0.020833
147
0.0
147
0.0
147
0.0
147
0.0
147
1.0
147
0.0
147
0.0
147
0.0
147
0.0
147
1.0
  0
MATERIAL
  5
21
102
{ACAD_XDICTIONARY
360
22
102
}
102
{ACAD_REACTORS
330
10
102
}
330
10
100
AcDbMaterial
  1
Global
 72
     0
 43
0.020833
 43
0.0
 43
0.0
 43
0.0
 43
0.0
 43
0.020833
 43
0.0
 43
0.0
 43
0.0
 43
0.0
 43
1.0
 43
0.0
 43
0.0
 43
0.0
 43
0.0
 43
1.0
 77
     0
 47
0.020833
 47
0.0
 47
0.0
 47
0.0
 47
0.0
 47
0.020833
 47
0.0
 47
0.0
 47
0.0
 47
0.0
 47
1.0
 47
0.0
 47
0.0
 47
0.0
 47
0.0
 47
1.0
171
     0
 49
0.020833
 49
0.0
 49
0.0
 49
0.0
 49
0.0
 49
0.020833
 49
0.0
 49
0.0
 49
0.0
 49
0.0
 49
1.0
 49
0.0
 49
0.0
 49
0.0
 49
0.0
 49
1.0
175
     0
142
0.020833
142
0.0
142
0.0
142
0.0
142
0.0
142
0.020833
142
0.0
142
0.0
142
0.0
142
0.0
142
1.0
142
0.0
142
0.0
142
0.0
142
0.0
142
1.0
179
     0
144
0.020833
144
0.0
144
0.0
144
0.0
144
0.0
144
0.020833
144
0.0
144
0.0
144
0.0
144
0.0
144
1.0
144
0.0
144
0.0
144
0.0
144
0.0
144
1.0
147
0.020833
147
0.0
147
0.0
147
0.0
147
0.0
147
0.020833
147
0.0
147
0.0
147
0.0
147
0.0
147
1.0
147
0.0
147
0.0
147
0.0
147
0.0
147
1.0
  0
MLEADERSTYLE
  5
67
102
{ACAD_REACTORS
330
66
102
}
330
66
100
AcDbMLeaderStyle
179
     2
170
     2
171
     1
172
     0
 90
        2
 40
0.0
 41
0.0
173
     1
 91
-1056964608
340
5B
 92
       -2
290
     1
 42
0.09
291
     1
 43
0.36
  3
Standard
 44
0.18
300

342
55
174
     1
178
     6
175
     1
176
     0
 93
-1056964608
 45
0.18
292
     0
297
     0
 46
0.18
 94
-1056964608
 47
1.0
 49
1.0
140
1.0
293
     1
141
0.0
294
     1
177
     0
142
1.0
295
     0
296
     0
143
0.125
271
     0
272
     9
273
     9
298
     1
  0
MLINESTYLE
  5
60
102
{ACAD_REACTORS
330
5F
102
}
330
5F
100
AcDbMlineStyle
  2
STANDARD
 70
     0
  3

 62
   256
 51
90.0
 52
90.0
 71
     0
  0
ACDBPLACEHOLDER
  5
F
102
{ACAD_REACTORS
330
E
102
}
330
E
  0
SCALE
  5
43
102
{ACAD_REACTORS
330
42
102
}
330
42
100
AcDbScale
 70
     0
300
1:1
140
1.0
141
1.0
290
     1
  0
SCALE
  5
44
102
{ACAD_REACTORS
330
42
102
}
330
42
100
AcDbScale
 70
     0
300
1:2
140
1.0
141
2.0
290
     0
  0
SCALE
  5
45
102
{ACAD_REACTORS
330
42
102
}
330
42
100
AcDbScale
 70
     0
300
1:4
140
1.0
141
4.0
290
     0
  0
SCALE
  5
46
102
{ACAD_REACTORS
330
42
102
}
330
42
100
AcDbScale
 70
     0
300
1:5
140
1.0
141
5.0
290
     0
  0
SCALE
  5
47
102
{ACAD_REACTORS
330
42
102
}
330
42
100
AcDbScale
 70
     0
300
1:8
140
1.0
141
8.0
290
     0
  0
SCALE
  5
48
102
{ACAD_REACTORS
330
42
102
}
330
42
100
AcDbScale
 70
     0
300
1:10
140
1.0
141
10.0
290
     0
  0
SCALE
  5
49
102
{ACAD_REACTORS
330
42
102
}
330
42
100
AcDbScale
 70
     0
300
1:16
140
1.0
141
16.0
290
     0
  0
SCALE
  5
4A
102
{ACAD_REACTORS
330
42
102
}
330
42
100
AcDbScale
 70
     0
300
1:20
140
1.0
141
20.0
290
     0
  0
SCALE
  5
4B
102
{ACAD_REACTORS
330
42
102
}
330
42
100
AcDbScale
 70
     0
300
1:30
140
1.0
141
30.0
290
     0
  0
SCALE
  5
4C
102
{ACAD_REACTORS
330
42
102
}
330
42
100
AcDbScale
 70
     0
300
1:40
140
1.0
141
40.0
290
     0
  0
SCALE
  5
4D
102
{ACAD_REACTORS
330
42
102
}
330
42
100
AcDbScale
 70
     0
300
1:50
140
1.0
141
50.0
290
     0
  0
SCALE
  5
4E
102
{ACAD_REACTORS
330
42
102
}
330
42
100
AcDbScale
 70
     0
300
1:100
140
1.0
141
100.0
290
     0
  0
SCALE
  5
4F
102
{ACAD_REACTORS
330
42
102
}
330
42
100
AcDbScale
 70
     0
300
2:1
140
2.0
141
1.0
290
     0
  0
SCALE
  5
50
102
{ACAD_REACTORS
330
42
102
}
330
42
100
AcDbScale
 70
     0
300
4:1
140
4.0
141
1.0
290
     0
  0
SCALE
  5
51
102
{ACAD_REACTORS
330
42
102
}
330
42
100
AcDbScale
 70
     0
300
8:1
140
8.0
141
1.0
290
     0
  0
SCALE
  5
52
102
{ACAD_REACTORS
330
42
102
}
330
42
100
AcDbScale
 70
     0
300
10:1
140
10.0
141
1.0
290
     0
  0
SCALE
  5
53
102
{ACAD_REACTORS
330
42
102
}
330
42
100
AcDbScale
 70
     0
300
100:1
140
100.0
141
1.0
290
     0
  0
ACDBSECTIONVIEWSTYLE
  5
69
102
{ACAD_XDICTIONARY
360
3C1
102
}
102
{ACAD_REACTORS
330
68
102
}
330
68
100
AcDbModelDocViewStyle
 70
     0
  3
Imperial24
290
     0
100
AcDbSectionViewStyle
 70
     0
 71
     0
 90
       78
 71
     1
340
55
 62
   256
 40
0.24
340
0
340
0
 62
   256
 40
0.24
300
I, O, Q, S, X, Z
 40
0.48
 90
        3
 40
0.18
 90
        1
 71
     2
340
5D
 90
       25
 62
   256
340
5D
 90
       50
 62
   256
 40
0.24
 40
0.0
 40
0.24
 71
     3
340
55
 62
   256
 40
0.24
 90
        1
 40
0.75
 90
        1
300
%<\AcVar ViewType \f "%tc1">% %<\AcVar ViewSectionStartId>%-%<\AcVar ViewSectionEndId>%\PSCALE %<\AcVar ViewScale \f "%sn">%
 71
     4
 62
   256
 62
   257
300
ANSI31
 40
1.0
 90
        0
290
     0
290
     0
 90
        6
 40
0.0
 40
1.570796
 40
0.261799
 40
1.308997
 40
-0.261799
 40
1.832596
  0
TABLESTYLE
  5
65
102
{ACAD_XDICTIONARY
360
3BE
102
}
102
{ACAD_REACTORS
330
64
102
}
330
64
100
AcDbTableStyle
280
     0
  3
Standard
 70
     0
 71
     0
 40
1.5
 41
1.5
280
     0
281
     0
  7
Standard
140
0.18
170
     2
 62
     0
 63
     7
283
     0
 90
      512
 91
        0
  1

274
    -2
284
     1
 64
     0
275
    -2
285
     1
 65
     0
276
    -2
286
     1
 66
     0
277
    -2
287
     1
 67
     0
278
    -2
288
     1
 68
     0
279
    -2
289
     1
 69
     0
  7
Standard
140
0.25
170
     5
 62
     0
 63
     7
283
     0
 90
      512
 91
        0
  1

274
    -2
284
     1
 64
     0
275
    -2
285
     1
 65
     0
276
    -2
286
     1
 66
     0
277
    -2
287
     1
 67
     0
278
    -2
288
     1
 68
     0
279
    -2
289
     1
 69
     0
  7
Standard
140
0.18
170
     5
 62
     0
 63
     7
283
     0
 90
      512
 91
        0
  1

274
    -2
284
     1
 64
     0
275
    -2
285
     1
 65
     0
276
    -2
286
     1
 66
     0
277
    -2
287
     1
 67
     0
278
    -2
288
     1
 68
     0
279
    -2
289
     1
 69
     0
  0
VISUALSTYLE
  5
2F
102
{ACAD_REACTORS
330
29
102
}
330
29
100
AcDbVisualStyle
  2
2dWireframe
 70
     4
177
     3
291
     0
 70
    58
 90
        0
176
     1
 90
        2
176
     1
 90
        0
176
     1
 90
        0
176
     1
 40
0.6
176
     1
 40
30.0
176
     1
 62
     7
420
 16777215
176
     1
 90
        1
176
     1
 90
        4
176
     1
 62
     7
176
     1
 62
   257
176
     1
 90
        1
176
     1
 90
        1
176
     1
 40
1.0
176
     1
 90
        0
176
     1
 62
   257
176
     1
 40
1.0
176
     1
 90
        1
176
     1
 90
        6
176
     1
 90
        2
176
     1
 62
     7
176
     1
 90
        5
176
     1
 90
        0
176
     1
 90
        0
176
     1
290
     0
176
     1
 90
        1
176
     1
 40
0.0
176
     1
 90
        0
176
     1
290
     1
176
     1
290
     1
176
     1
290
     0
176
     1
290
     0
176
     1
290
     0
176
     1
290
     0
176
     1
290
     0
176
     1
290
     0
176
     1
290
     0
176
     1
 90
       50
176
     1
 40
0.0
176
     1
 40
1.0
176
     1
 90
        0
176
     1
 62
    18
420
        0
176
     1
 90
       50
176
     1
 90
        3
176
     1
 62
     5
420
      255
176
     1
290
     0
176
     1
 90
       50
176
     1
 90
       50
176
     1
 90
       50
176
     1
290
     0
176
     1
 90
       50
176
     1
 62
   256
176
     0
 40
1.0
176
     0
 90
        2
176
     1
  1
strokes_ogs.tif
176
     1
290
     0
176
     1
 40
1.0
176
     1
 40
1.0
176
     1
1001
ACAD
1000
AcDbSavedByObjectVersion
1070
     0
  0
VISUALSTYLE
  5
2E
102
{ACAD_REACTORS
330
29
102
}
330
29
100
AcDbVisualStyle
  2
Basic
 70
     7
177
     3
291
     1
 70
    58
 90
        1
176
     1
 90
        0
176
     1
 90
        1
176
     1
 90
        0
176
     1
 40
0.6
176
     1
 40
30.0
176
     1
 62
     7
420
 16777215
176
     1
 90
        0
176
     1
 90
        4
176
     1
 62
     7
176
     1
 62
   257
176
     1
 90
        1
176
     1
 90
        1
176
     1
 40
1.0
176
     1
 90
        8
176
     1
 62
     7
176
     1
 40
1.0
176
     1
 90
        1
176
     1
 90
        6
176
     1
 90
        2
176
     1
 62
     7
176
     1
 90
        5
176
     1
 90
        0
176
     1
 90
        0
176
     1
290
     0
176
     1
 90
        1
176
     1
 40
0.0
176
     1
 90
        0
176
     1
290
     0
176
     1
290
     1
176
     1
290
     1
176
     1
290
     0
176
     1
290
     0
176
     1
290
     0
176
     1
290
     0
176
     1
290
     0
176
     1
290
     0
176
     1
 90
       50
176
     1
 40
0.0
176
     1
 40
1.0
176
     1
 90
        0
176
     1
 62
    18
420
        0
176
     1
 90
       50
176
     1
 90
        3
176
     1
 62
     5
420
      255
176
     1
290
     0
176
     1
 90
       50
176
     1
 90
       50
176
     1
 90
       50
176
     1
290
     0
176
     1
 90
       50
176
     1
 62
   256
176
     0
 40
1.0
176
     0
 90
        2
176
     1
  1
strokes_ogs.tif
176
     1
290
     0
176
     1
 40
1.0
176
     1
 40
1.0
176
     1
1001
ACAD
1000
AcDbSavedByObjectVersion
1070
     0
  0
VISUALSTYLE
  5
35
102
{ACAD_REACTORS
330
29
102
}
330
29
100
AcDbVisualStyle
  2
Brighten
 70
    12
177
     3
291
     1
 70
    58
 90
        2
176
     1
 90
        2
176
     1
 90
        0
176
     1
 90
        0
176
     1
 40
0.6
176
     1
 40
30.0
176
     1
 62
     7
420
 16777215
176
     1
 90
        1
176
     1
 90
        4
176
     1
 62
     7
176
     1
 62
   257
176
     1
 90
        1
176
     1
 90
        1
176
     1
 40
1.0
176
     1
 90
        8
176
     1
 62
     7
176
     1
 40
1.0
176
     1
 90
        1
176
     1
 90
        6
176
     1
 90
        2
176
     1
 62
     7
176
     1
 90
        5
176
     1
 90
        0
176
     1
 90
        0
176
     1
290
     0
176
     1
 90
        1
176
     1
 40
50.0
176
     1
 90
        0
176
     1
290
     0
176
     1
290
     1
176
     1
290
     1
176
     1
290
     0
176
     1
290
     0
176
     1
290
     0
176
     1
290
     0
176
     1
290
     0
176
     1
290
     0
176
     1
 90
       50
176
     1
 40
0.0
176
     1
 40
1.0
176
     1
 90
        0
176
     1
 62
    18
420
        0
176
     1
 90
       50
176
     1
 90
        3
176
     1
 62
     5
420
      255
176
     1
290
     0
176
     1
 90
       50
176
     1
 90
       50
176
     1
 90
       50
176
     1
290
     0
176
     1
 90
       50
176
     1
 62
   256
176
     0
 40
1.0
176
     0
 90
        2
176
     1
  1
strokes_ogs.tif
176
     1
290
     0
176
     1
 40
1.0
176
     1
 40
1.0
176
     1
1001
ACAD
1000
AcDbSavedByObjectVersion
1070
     0
  0
VISUALSTYLE
  5
39
102
{ACAD_REACTORS
330
29
102
}
330
29
100
AcDbVisualStyle
  2
ColorChange
 70
    16
177
     3
291
     1
 70
    58
 90
        2
176
     1
 90
        2
176
     1
 90
        3
176
     1
 90
        0
176
     1
 40
0.6
176
     1
 40
30.0
176
     1
 62
     8
420
  8421504
176
     1
 90
        1
176
     1
 90
        4
176
     1
 62
     7
176
     1
 62
   257
176
     1
 90
        1
176
     1
 90
        1
176
     1
 40
1.0
176
     1
 90
        8
176
     1
 62
     8
420
  8421504
176
     1
 40
1.0
176
     1
 90
        1
176
     1
 90
        6
176
     1
 90
        2
176
     1
 62
     7
176
     1
 90
        5
176
     1
 90
        0
176
     1
 90
        0
176
     1
290
     0
176
     1
 90
        1
176
     1
 40
0.0
176
     1
 90
        0
176
     1
290
     0
176
     1
290
     1
176
     1
290
     1
176
     1
290
     0
176
     1
290
     0
176
     1
290
     0
176
     1
290
     0
176
     1
290
     0
176
     1
290
     0
176
     1
 90
       50
176
     1
 40
0.0
176
     1
 40
1.0
176
     1
 90
        0
176
     1
 62
    18
420
        0
176
     1
 90
       50
176
     1
 90
        3
176
     1
 62
     5
420
      255
176
     1
290
     0
176
     1
 90
       50
176
     1
 90
       50
176
     1
 90
       50
176
     1
290
     0
176
     1
 90
       50
176
     1
 62
   256
176
     0
 40
1.0
176
     0
 90
        2
176
     1
  1
strokes_ogs.tif
176
     1
290
     0
176
     1
 40
1.0
176
     1
 40
1.0
176
     1
1001
ACAD
1000
AcDbSavedByObjectVersion
1070
     0
  0
VISUALSTYLE
  5
32
102
{ACAD_REACTORS
330
29
102
}
330
29
100
AcDbVisualStyle
  2
Conceptual
 70
     9
177
     3
291
     0
 70
    58
 90
        3
176
     1
 90
        2
176
     1
 90
        0
176
     1
 90
        0
176
     1
 40
0.6
176
     1
 40
30.0
176
     1
 62
     7
420
 16777215
176
     1
 90
        2
176
     1
 90
        2
176
     1
 62
     7
176
     1
 62
   257
176
     1
 90
        1
176
     1
 90
        1
176
     1
 40
179.0
176
     1
 90
        8
176
     1
 62
     7
176
     1
 40
1.0
176
     1
 90
        1
176
     1
 90
        6
176
     1
 90
        2
176
     1
 62
     7
176
     1
 90
        3
176
     1
 90
        0
176
     1
 90
        0
176
     1
290
     0
176
     1
 90
        1
176
     1
 40
0.0
176
     1
 90
        0
176
     1
290
     0
176
     1
290
     1
176
     1
290
     1
176
     1
290
     0
176
     1
290
     0
176
     1
290
     0
176
     1
290
     0
176
     1
290
     0
176
     1
290
     0
176
     1
 90
       50
176
     1
 40
0.0
176
     1
 40
1.0
176
     1
 90
        0
176
     1
 62
    18
420
        0
176
     1
 90
       50
176
     1
 90
        3
176
     1
 62
     5
420
      255
176
     1
290
     0
176
     1
 90
       50
176
     1
 90
       50
176
     1
 90
       50
176
     1
290
     0
176
     1
 90
       50
176
     1
 62
   256
176
     0
 40
1.0
176
     0
 90
        2
176
     1
  1
strokes_ogs.tif
176
     1
290
     0
176
     1
 40
1.0
176
     1
 40
1.0
176
     1
1001
ACAD
1000
AcDbSavedByObjectVersion
1070
     0
  0
VISUALSTYLE
  5
34
102
{ACAD_REACTORS
330
29
102
}
330
29
100
AcDbVisualStyle
  2
Dim
 70
    11
177
     3
291
     1
 70
    58
 90
        2
176
     1
 90
        2
176
     1
 90
        0
176
     1
 90
        0
176
     1
 40
0.6
176
     1
 40
30.0
176
     1
 62
     7
420
 16777215
176
     1
 90
        1
176
     1
 90
        4
176
     1
 62
     7
176
     1
 62
   257
176
     1
 90
        1
176
     1
 90
        1
176
     1
 40
1.0
176
     1
 90
        8
176
     1
 62
     7
176
     1
 40
1.0
176
     1
 90
        1
176
     1
 90
        6
176
     1
 90
        2
176
     1
 62
     7
176
     1
 90
        5
176
     1
 90
        0
176
     1
 90
        0
176
     1
290
     0
176
     1
 90
        1
176
     1
 40
-50.0
176
     1
 90
        0
176
     1
290
     0
176
     1
290
     1
176
     1
290
     1
176
     1
290
     0
176
     1
290
     0
176
     1
290
     0
176
     1
290
     0
176
     1
290
     0
176
     1
290
     0
176
     1
 90
       50
176
     1
 40
0.0
176
     1
 40
1.0
176
     1
 90
        0
176
     1
 62
    18
420
        0
176
     1
 90
       50
176
     1
 90
        3
176
     1
 62
     5
420
      255
176
     1
290
     0
176
     1
 90
       50
176
     1
 90
       50
176
     1
 90
       50
176
     1
290
     0
176
     1
 90
       50
176
     1
 62
   256
176
     0
 40
1.0
176
     0
 90
        2
176
     1
  1
strokes_ogs.tif
176
     1
290
     0
176
     1
 40
1.0
176
     1
 40
1.0
176
     1
1001
ACAD
1000
AcDbSavedByObjectVersion
1070
     0
  0
VISUALSTYLE
  5
41
102
{ACAD_REACTORS
330
29
102
}
330
29
100
AcDbVisualStyle
  2
EdgeColorOff
 70
    22
177
     3
291
     1
 70
    58
 90
        2
176
     0
 90
        2
176
     0
 90
        0
176
     0
 90
        0
176
     0
 40
0.6
176
     0
 40
30.0
176
     0
 62
     7
420
 16777215
176
     0
 90
        1
176
     0
 90
        4
176
     0
 62
     7
176
     0
 62
   257
176
     0
 90
        1
176
     0
 90
        1
176
     0
 40
1.0
176
     0
 90
        8
176
     2
 62
     7
176
     0
 40
1.0
176
     0
 90
        1
176
     0
 90
        6
176
     0
 90
        2
176
     0
 62
     7
176
     0
 90
        5
176
     0
 90
        0
176
     0
 90
        0
176
     0
290
     0
176
     0
 90
        1
176
     0
 40
0.0
176
     0
 90
        0
176
     0
290
     0
176
     0
290
     1
176
     0
290
     1
176
     0
290
     0
176
     0
290
     0
176
     0
290
     0
176
     0
290
     0
176
     0
290
     0
176
     0
290
     0
176
     0
 90
       50
176
     0
 40
0.0
176
     0
 40
1.0
176
     0
 90
        0
176
     0
 62
    18
420
        0
176
     0
 90
       50
176
     0
 90
        3
176
     0
 62
     5
420
      255
176
     0
290
     0
176
     0
 90
       50
176
     0
 90
       50
176
     0
 90
       50
176
     0
290
     0
176
     0
 90
       50
176
     0
 62
   256
176
     0
 40
1.0
176
     0
 90
        2
176
     0
  1
strokes_ogs.tif
176
     0
290
     0
176
     0
 40
1.0
176
     0
 40
1.0
176
     0
1001
ACAD
1000
AcDbSavedByObjectVersion
1070
     0
  0
VISUALSTYLE
  5
38
102
{ACAD_REACTORS
330
29
102
}
330
29
100
AcDbVisualStyle
  2
Facepattern
 70
    15
177
     3
291
     1
 70
    58
 90
        2
176
     1
 90
        2
176
     1
 90
        0
176
     1
 90
        0
176
     1
 40
0.6
176
     1
 40
30.0
176
     1
 62
     7
420
 16777215
176
     1
 90
        1
176
     1
 90
        4
176
     1
 62
     7
176
     1
 62
   257
176
     1
 90
        1
176
     1
 90
        1
176
     1
 40
1.0
176
     1
 90
        8
176
     1
 62
     7
176
     1
 40
1.0
176
     1
 90
        1
176
     1
 90
        6
176
     1
 90
        2
176
     1
 62
     7
176
     1
 90
        5
176
     1
 90
        0
176
     1
 90
        0
176
     1
290
     0
176
     1
 90
        1
176
     1
 40
0.0
176
     1
 90
        0
176
     1
290
     0
176
     1
290
     1
176
     1
290
     1
176
     1
290
     0
176
     1
290
     0
176
     1
290
     0
176
     1
290
     0
176
     1
290
     0
176
     1
290
     0
176
     1
 90
       50
176
     1
 40
0.0
176
     1
 40
1.0
176
     1
 90
        0
176
     1
 62
    18
420
        0
176
     1
 90
       50
176
     1
 90
        3
176
     1
 62
     5
420
      255
176
     1
290
     0
176
     1
 90
       50
176
     1
 90
       50
176
     1
 90
       50
176
     1
290
     0
176
     1
 90
       50
176
     1
 62
   256
176
     0
 40
1.0
176
     0
 90
        2
176
     1
  1
strokes_ogs.tif
176
     1
290
     0
176
     1
 40
1.0
176
     1
 40
1.0
176
     1
1001
ACAD
1000
AcDbSavedByObjectVersion
1070
     0
  0
VISUALSTYLE
  5
2A
102
{ACAD_REACTORS
330
29
102
}
330
29
100
AcDbVisualStyle
  2
Flat
 70
     0
177
     3
291
     1
 70
    58
 90
        2
176
     1
 90
        1
176
     1
 90
        1
176
     1
 90
        2
176
     1
 40
0.6
176
     1
 40
30.0
176
     1
 62
     7
420
 16777215
176
     1
 90
        0
176
     1
 90
        0
176
     1
 62
     7
176
     1
 62
   257
176
     1
 90
        1
176
     1
 90
        1
176
     1
 40
1.0
176
     1
 90
        8
176
     1
 62
     7
176
     1
 40
1.0
176
     1
 90
        1
176
     1
 90
        6
176
     1
 90
        2
176
     1
 62
     7
176
     1
 90
        5
176
     1
 90
        0
176
     1
 90
        0
176
     1
290
     0
176
     1
 90
       13
176
     1
 40
0.0
176
     1
 90
        0
176
     1
290
     0
176
     1
290
     1
176
     1
290
     1
176
     1
290
     0
176
     1
290
     0
176
     1
290
     0
176
     1
290
     0
176
     1
290
     0
176
     1
290
     0
176
     1
 90
       50
176
     1
 40
0.0
176
     1
 40
1.0
176
     1
 90
        0
176
     1
 62
    18
420
        0
176
     1
 90
       50
176
     1
 90
        3
176
     1
 62
     5
420
      255
176
     1
290
     0
176
     1
 90
       50
176
     1
 90
       50
176
     1
 90
       50
176
     1
290
     0
176
     1
 90
       50
176
     1
 62
   256
176
     0
 40
1.0
176
     0
 90
        2
176
     1
  1
strokes_ogs.tif
176
     1
290
     0
176
     1
 40
1.0
176
     1
 40
1.0
176
     1
1001
ACAD
1000
AcDbSavedByObjectVersion
1070
     0
  0
VISUALSTYLE
  5
2B
102
{ACAD_REACTORS
330
29
102
}
330
29
100
AcDbVisualStyle
  2
FlatWithEdges
 70
     1
177
     3
291
     1
 70
    58
 90
        2
176
     1
 90
        1
176
     1
 90
        1
176
     1
 90
        2
176
     1
 40
0.6
176
     1
 40
30.0
176
     1
 62
     7
420
 16777215
176
     1
 90
        1
176
     1
 90
        0
176
     1
 62
     7
176
     1
 62
   257
176
     1
 90
        1
176
     1
 90
        1
176
     1
 40
1.0
176
     1
 90
        0
176
     1
 62
   257
176
     1
 40
1.0
176
     1
 90
        1
176
     1
 90
        6
176
     1
 90
        2
176
     1
 62
     7
176
     1
 90
        5
176
     1
 90
        0
176
     1
 90
        0
176
     1
290
     0
176
     1
 90
       13
176
     1
 40
0.0
176
     1
 90
        0
176
     1
290
     0
176
     1
290
     1
176
     1
290
     1
176
     1
290
     0
176
     1
290
     0
176
     1
290
     0
176
     1
290
     0
176
     1
290
     0
176
     1
290
     0
176
     1
 90
       50
176
     1
 40
0.0
176
     1
 40
1.0
176
     1
 90
        0
176
     1
 62
    18
420
        0
176
     1
 90
       50
176
     1
 90
        3
176
     1
 62
     5
420
      255
176
     1
290
     0
176
     1
 90
       50
176
     1
 90
       50
176
     1
 90
       50
176
     1
290
     0
176
     1
 90
       50
176
     1
 62
   256
176
     0
 40
1.0
176
     0
 90
        2
176
     1
  1
strokes_ogs.tif
176
     1
290
     0
176
     1
 40
1.0
176
     1
 40
1.0
176
     1
1001
ACAD
1000
AcDbSavedByObjectVersion
1070
     0
  0
VISUALSTYLE
  5
2C
102
{ACAD_REACTORS
330
29
102
}
330
29
100
AcDbVisualStyle
  2
Gouraud
 70
     2
177
     3
291
     1
 70
    58
 90
        2
176
     1
 90
        2
176
     1
 90
        1
176
     1
 90
        2
176
     1
 40
0.6
176
     1
 40
30.0
176
     1
 62
     7
420
 16777215
176
     1
 90
        0
176
     1
 90
        0
176
     1
 62
     7
176
     1
 62
   257
176
     1
 90
        1
176
     1
 90
        1
176
     1
 40
1.0
176
     1
 90
        0
176
     1
 62
     7
176
     1
 40
1.0
176
     1
 90
        1
176
     1
 90
        6
176
     1
 90
        2
176
     1
 62
     7
176
     1
 90
        5
176
     1
 90
        0
176
     1
 90
        0
176
     1
290
     0
176
     1
 90
       13
176
     1
 40
0.0
176
     1
 90
        0
176
     1
290
     0
176
     1
290
     1
176
     1
290
     1
176
     1
290
     0
176
     1
290
     0
176
     1
290
     0
176
     1
290
     0
176
     1
290
     0
176
     1
290
     0
176
     1
 90
       50
176
     1
 40
0.0
176
     1
 40
1.0
176
     1
 90
        0
176
     1
 62
    18
420
        0
176
     1
 90
       50
176
     1
 90
        3
176
     1
 62
     5
420
      255
176
     1
290
     0
176
     1
 90
       50
176
     1
 90
       50
176
     1
 90
       50
176
     1
290
     0
176
     1
 90
       50
176
     1
 62
   256
176
     0
 40
1.0
176
     0
 90
        2
176
     1
  1
strokes_ogs.tif
176
     1
290
     0
176
     1
 40
1.0
176
     1
 40
1.0
176
     1
1001
ACAD
1000
AcDbSavedByObjectVersion
1070
     0
  0
VISUALSTYLE
  5
2D
102
{ACAD_REACTORS
330
29
102
}
330
29
100
AcDbVisualStyle
  2
GouraudWithEdges
 70
     3
177
     3
291
     1
 70
    58
 90
        2
176
     1
 90
        2
176
     1
 90
        1
176
     1
 90
        2
176
     1
 40
0.6
176
     1
 40
30.0
176
     1
 62
     7
420
 16777215
176
     1
 90
        1
176
     1
 90
        0
176
     1
 62
     7
176
     1
 62
   257
176
     1
 90
        1
176
     1
 90
        1
176
     1
 40
1.0
176
     1
 90
        0
176
     1
 62
   257
176
     1
 40
1.0
176
     1
 90
        1
176
     1
 90
        6
176
     1
 90
        2
176
     1
 62
     7
176
     1
 90
        5
176
     1
 90
        0
176
     1
 90
        0
176
     1
290
     0
176
     1
 90
       13
176
     1
 40
0.0
176
     1
 90
        0
176
     1
290
     0
176
     1
290
     1
176
     1
290
     1
176
     1
290
     0
176
     1
290
     0
176
     1
290
     0
176
     1
290
     0
176
     1
290
     0
176
     1
290
     0
176
     1
 90
       50
176
     1
 40
0.0
176
     1
 40
1.0
176
     1
 90
        0
176
     1
 62
    18
420
        0
176
     1
 90
       50
176
     1
 90
        3
176
     1
 62
     5
420
      255
176
     1
290
     0
176
     1
 90
       50
176
     1
 90
       50
176
     1
 90
       50
176
     1
290
     0
176
     1
 90
       50
176
     1
 62
   256
176
     0
 40
1.0
176
     0
 90
        2
176
     1
  1
strokes_ogs.tif
176
     1
290
     0
176
     1
 40
1.0
176
     1
 40
1.0
176
     1
1001
ACAD
1000
AcDbSavedByObjectVersion
1070
     0
  0
VISUALSTYLE
  5
31
102
{ACAD_REACTORS
330
29
102
}
330
29
100
AcDbVisualStyle
  2
Hidden
 70
     6
177
     3
291
     0
 70
    58
 90
        1
176
     1
 90
        2
176
     1
 90
        2
176
     1
 90
        0
176
     1
 40
0.6
176
     1
 40
30.0
176
     1
 62
     7
420
 16777215
176
     1
 90
        2
176
     1
 90
        2
176
     1
 62
     7
176
     1
 62
   257
176
     1
 90
        2
176
     1
 90
        1
176
     1
 40
40.0
176
     1
 90
        0
176
     1
 62
   257
176
     1
 40
1.0
176
     1
 90
        1
176
     1
 90
        6
176
     1
 90
        2
176
     1
 62
     7
176
     1
 90
        3
176
     1
 90
        0
176
     1
 90
        0
176
     1
290
     0
176
     1
 90
        1
176
     1
 40
0.0
176
     1
 90
        0
176
     1
290
     0
176
     1
290
     1
176
     1
290
     1
176
     1
290
     0
176
     1
290
     0
176
     1
290
     0
176
     1
290
     0
176
     1
290
     0
176
     1
290
     0
176
     1
 90
       50
176
     1
 40
0.0
176
     1
 40
1.0
176
     1
 90
        0
176
     1
 62
    18
420
        0
176
     1
 90
       50
176
     1
 90
        3
176
     1
 62
     5
420
      255
176
     1
290
     0
176
     1
 90
       50
176
     1
 90
       50
176
     1
 90
       50
176
     1
290
     0
176
     1
 90
       50
176
     1
 62
   256
176
     0
 40
1.0
176
     0
 90
        2
176
     1
  1
strokes_ogs.tif
176
     1
290
     0
176
     1
 40
1.0
176
     1
 40
1.0
176
     1
1001
ACAD
1000
AcDbSavedByObjectVersion
1070
     0
  0
VISUALSTYLE
  5
3F
102
{ACAD_REACTORS
330
29
102
}
330
29
100
AcDbVisualStyle
  2
JitterOff
 70
    20
177
     3
291
     1
 70
    58
 90
        2
176
     0
 90
        2
176
     0
 90
        0
176
     0
 90
        0
176
     0
 40
0.6
176
     0
 40
30.0
176
     0
 62
     7
420
 16777215
176
     0
 90
        1
176
     0
 90
        4
176
     0
 62
     7
176
     0
 62
   257
176
     0
 90
        1
176
     0
 90
        1
176
     0
 40
1.0
176
     0
 90
       10
176
     2
 62
     7
176
     0
 40
1.0
176
     0
 90
        1
176
     0
 90
        6
176
     0
 90
        2
176
     0
 62
     7
176
     0
 90
        5
176
     0
 90
        0
176
     0
 90
        0
176
     0
290
     0
176
     0
 90
        1
176
     0
 40
0.0
176
     0
 90
        0
176
     0
290
     0
176
     0
290
     1
176
     0
290
     1
176
     0
290
     0
176
     0
290
     0
176
     0
290
     0
176
     0
290
     0
176
     0
290
     0
176
     0
290
     0
176
     0
 90
       50
176
     0
 40
0.0
176
     0
 40
1.0
176
     0
 90
        0
176
     0
 62
    18
420
        0
176
     0
 90
       50
176
     0
 90
        3
176
     0
 62
     5
420
      255
176
     0
290
     0
176
     0
 90
       50
176
     0
 90
       50
176
     0
 90
       50
176
     0
290
     0
176
     0
 90
       50
176
     0
 62
   256
176
     0
 40
1.0
176
     0
 90
        2
176
     0
  1
strokes_ogs.tif
176
     0
290
     0
176
     0
 40
1.0
176
     0
 40
1.0
176
     0
1001
ACAD
1000
AcDbSavedByObjectVersion
1070
     0
  0
VISUALSTYLE
  5
37
102
{ACAD_REACTORS
330
29
102
}
330
29
100
AcDbVisualStyle
  2
Linepattern
 70
    14
177
     3
291
     1
 70
    58
 90
        2
176
     1
 90
        2
176
     1
 90
        0
176
     1
 90
        0
176
     1
 40
0.6
176
     1
 40
30.0
176
     1
 62
     7
420
 16777215
176
     1
 90
        1
176
     1
 90
        4
176
     1
 62
     7
176
     1
 62
   257
176
     1
 90
        7
176
     1
 90
        7
176
     1
 40
1.0
176
     1
 90
        8
176
     1
 62
     7
176
     1
 40
1.0
176
     1
 90
        1
176
     1
 90
        6
176
     1
 90
        2
176
     1
 62
     7
176
     1
 90
        5
176
     1
 90
        0
176
     1
 90
        0
176
     1
290
     0
176
     1
 90
        1
176
     1
 40
0.0
176
     1
 90
        0
176
     1
290
     0
176
     1
290
     1
176
     1
290
     1
176
     1
290
     0
176
     1
290
     0
176
     1
290
     0
176
     1
290
     0
176
     1
290
     0
176
     1
290
     0
176
     1
 90
       50
176
     1
 40
0.0
176
     1
 40
1.0
176
     1
 90
        0
176
     1
 62
    18
420
        0
176
     1
 90
       50
176
     1
 90
        3
176
     1
 62
     5
420
      255
176
     1
290
     0
176
     1
 90
       50
176
     1
 90
       50
176
     1
 90
       50
176
     1
290
     0
176
     1
 90
       50
176
     1
 62
   256
176
     0
 40
1.0
176
     0
 90
        2
176
     1
  1
strokes_ogs.tif
176
     1
290
     0
176
     1
 40
1.0
176
     1
 40
1.0
176
     1
1001
ACAD
1000
AcDbSavedByObjectVersion
1070
     0
  0
VISUALSTYLE
  5
40
102
{ACAD_REACTORS
330
29
102
}
330
29
100
AcDbVisualStyle
  2
OverhangOff
 70
    21
177
     3
291
     1
 70
    58
 90
        2
176
     0
 90
        2
176
     0
 90
        0
176
     0
 90
        0
176
     0
 40
0.6
176
     0
 40
30.0
176
     0
 62
     7
420
 16777215
176
     0
 90
        1
176
     0
 90
        4
176
     0
 62
     7
176
     0
 62
   257
176
     0
 90
        1
176
     0
 90
        1
176
     0
 40
1.0
176
     0
 90
        9
176
     2
 62
     7
176
     0
 40
1.0
176
     0
 90
        1
176
     0
 90
        6
176
     0
 90
        2
176
     0
 62
     7
176
     0
 90
        5
176
     0
 90
        0
176
     0
 90
        0
176
     0
290
     0
176
     0
 90
        1
176
     0
 40
0.0
176
     0
 90
        0
176
     0
290
     0
176
     0
290
     1
176
     0
290
     1
176
     0
290
     0
176
     0
290
     0
176
     0
290
     0
176
     0
290
     0
176
     0
290
     0
176
     0
290
     0
176
     0
 90
       50
176
     0
 40
0.0
176
     0
 40
1.0
176
     0
 90
        0
176
     0
 62
    18
420
        0
176
     0
 90
       50
176
     0
 90
        3
176
     0
 62
     5
420
      255
176
     0
290
     0
176
     0
 90
       50
176
     0
 90
       50
176
     0
 90
       50
176
     0
290
     0
176
     0
 90
       50
176
     0
 62
   256
176
     0
 40
1.0
176
     0
 90
        2
176
     0
  1
strokes_ogs.tif
176
     0
290
     0
176
     0
 40
1.0
176
     0
 40
1.0
176
     0
1001
ACAD
1000
AcDbSavedByObjectVersion
1070
     0
  0
VISUALSTYLE
  5
33
102
{ACAD_REACTORS
330
29
102
}
330
29
100
AcDbVisualStyle
  2
Realistic
 70
     8
177
     3
291
     0
 70
    58
 90
        2
176
     1
 90
        3
176
     1
 90
        0
176
     1
 90
        2
176
     1
 40
0.6
176
     1
 40
30.0
176
     1
 62
     7
420
 16777215
176
     1
 90
        0
176
     1
 90
        0
176
     1
 62
     7
176
     1
 62
   257
176
     1
 90
        1
176
     1
 90
        1
176
     1
 40
1.0
176
     1
 90
        8
176
     1
 62
   257
176
     1
 40
1.0
176
     1
 90
        1
176
     1
 90
        6
176
     1
 90
        2
176
     1
 62
     7
176
     1
 90
        3
176
     1
 90
        0
176
     1
 90
        0
176
     1
290
     0
176
     1
 90
       13
176
     1
 40
0.0
176
     1
 90
        0
176
     1
290
     0
176
     1
290
     1
176
     1
290
     1
176
     1
290
     0
176
     1
290
     0
176
     1
290
     0
176
     1
290
     0
176
     1
290
     0
176
     1
290
     0
176
     1
 90
       50
176
     1
 40
0.0
176
     1
 40
1.0
176
     1
 90
        0
176
     1
 62
    18
420
        0
176
     1
 90
       50
176
     1
 90
        3
176
     1
 62
     5
420
      255
176
     1
290
     0
176
     1
 90
       50
176
     1
 90
       50
176
     1
 90
       50
176
     1
290
     0
176
     1
 90
       50
176
     1
 62
   256
176
     0
 40
1.0
176
     0
 90
        2
176
     1
  1
strokes_ogs.tif
176
     1
290
     0
176
     1
 40
1.0
176
     1
 40
1.0
176
     1
1001
ACAD
1000
AcDbSavedByObjectVersion
1070
     0
  0
VISUALSTYLE
  5
3E
102
{ACAD_REACTORS
330
29
102
}
330
29
100
AcDbVisualStyle
  2
Shaded
 70
    27
177
     3
291
     0
 70
    58
 90
        2
176
     1
 90
        2
176
     1
 90
        1
176
     1
 90
        2
176
     1
 40
0.6
176
     1
 40
30.0
176
     1
 62
     7
420
 16777215
176
     1
 90
        0
176
     1
 90
        4
176
     1
 62
     7
176
     1
 62
   257
176
     1
 90
        1
176
     1
 90
        1
176
     1
 40
1.0
176
     1
 90
        8
176
     1
 62
   257
176
     1
 40
1.0
176
     1
 90
        1
176
     1
 90
        6
176
     1
 90
        2
176
     1
 62
     8
420
  7895160
176
     1
 90
        3
176
     1
 90
        0
176
     1
 90
        0
176
     1
290
     0
176
     1
 90
        5
176
     1
 40
0.0
176
     1
 90
        0
176
     1
290
     0
176
     1
290
     1
176
     1
290
     1
176
     1
290
     0
176
     1
290
     0
176
     1
290
     0
176
     1
290
     0
176
     1
290
     0
176
     1
290
     0
176
     1
 90
       50
176
     1
 40
0.0
176
     1
 40
1.0
176
     1
 90
        0
176
     1
 62
    18
420
        0
176
     1
 90
       50
176
     1
 90
        3
176
     1
 62
     5
420
      255
176
     1
290
     0
176
     1
 90
       50
176
     1
 90
       50
176
     1
 90
       50
176
     1
290
     0
176
     1
 90
       50
176
     1
 62
   256
176
     0
 40
1.0
176
     0
 90
        2
176
     1
  1
strokes_ogs.tif
176
     1
290
     0
176
     1
 40
1.0
176
     1
 40
1.0
176
     1
1001
ACAD
1000
AcDbSavedByObjectVersion
1070
     0
  0
VISUALSTYLE
  5
3D
102
{ACAD_REACTORS
330
29
102
}
330
29
100
AcDbVisualStyle
  2
Shaded with edges
 70
    26
177
     3
291
     0
 70
    58
 90
        2
176
     1
 90
        2
176
     1
 90
        1
176
     1
 90
        2
176
     1
 40
0.6
176
     1
 40
30.0
176
     1
 62
     7
420
 16777215
176
     1
 90
        1
176
     1
 90
        2
176
     1
 62
     7
176
     1
 62
   257
176
     1
 90
        2
176
     1
 90
        1
176
     1
 40
1.0
176
     1
 90
        8
176
     1
 62
   257
176
     1
 40
1.0
176
     1
 90
        1
176
     1
 90
        6
176
     1
 90
        2
176
     1
 62
     7
176
     1
 90
        3
176
     1
 90
        0
176
     1
 90
        0
176
     1
290
     0
176
     1
 90
        5
176
     1
 40
0.0
176
     1
 90
        0
176
     1
290
     0
176
     1
290
     1
176
     1
290
     1
176
     1
290
     0
176
     1
290
     0
176
     1
290
     0
176
     1
290
     0
176
     1
290
     0
176
     1
290
     0
176
     1
 90
       50
176
     1
 40
0.0
176
     1
 40
1.0
176
     1
 90
        0
176
     1
 62
    18
420
        0
176
     1
 90
       50
176
     1
 90
        3
176
     1
 62
     5
420
      255
176
     1
290
     0
176
     1
 90
       50
176
     1
 90
       50
176
     1
 90
       50
176
     1
290
     0
176
     1
 90
       50
176
     1
 62
   256
176
     0
 40
1.0
176
     0
 90
        2
176
     1
  1
strokes_ogs.tif
176
     1
290
     0
176
     1
 40
1.0
176
     1
 40
1.0
176
     1
1001
ACAD
1000
AcDbSavedByObjectVersion
1070
     0
  0
VISUALSTYLE
  5
3A
102
{ACAD_REACTORS
330
29
102
}
330
29
100
AcDbVisualStyle
  2
Shades of Gray
 70
    23
177
     3
291
     0
 70
    58
 90
        2
176
     1
 90
        2
176
     1
 90
        3
176
     1
 90
        0
176
     1
 40
0.6
176
     1
 40
30.0
176
     1
 62
     7
420
 16777215
176
     1
 90
        2
176
     1
 90
        2
176
     1
 62
     7
176
     1
 62
     7
176
     1
 90
        1
176
     1
 90
        1
176
     1
 40
40.0
176
     1
 90
        8
176
     1
 62
     7
176
     1
 40
1.0
176
     1
 90
        1
176
     1
 90
        6
176
     1
 90
        2
176
     1
 62
     7
176
     1
 90
        3
176
     1
 90
        0
176
     1
 90
        0
176
     1
290
     0
176
     1
 90
        1
176
     1
 40
0.0
176
     1
 90
        0
176
     1
290
     0
176
     1
290
     1
176
     1
290
     1
176
     1
290
     0
176
     1
290
     0
176
     1
290
     0
176
     1
290
     0
176
     1
290
     0
176
     1
290
     0
176
     1
 90
       50
176
     1
 40
0.0
176
     1
 40
1.0
176
     1
 90
        0
176
     1
 62
    18
420
        0
176
     1
 90
       50
176
     1
 90
        3
176
     1
 62
     5
420
      255
176
     1
290
     0
176
     1
 90
       50
176
     1
 90
       50
176
     1
 90
       50
176
     1
290
     0
176
     1
 90
       50
176
     1
 62
   256
176
     0
 40
1.0
176
     0
 90
        2
176
     1
  1
strokes_ogs.tif
176
     1
290
     0
176
     1
 40
1.0
176
     1
 40
1.0
176
     1
1001
ACAD
1000
AcDbSavedByObjectVersion
1070
     0
  0
VISUALSTYLE
  5
3B
102
{ACAD_REACTORS
330
29
102
}
330
29
100
AcDbVisualStyle
  2
Sketchy
 70
    24
177
     3
291
     0
 70
    58
 90
        1
176
     1
 90
        2
176
     1
 90
        2
176
     1
 90
        0
176
     1
 40
0.6
176
     1
 40
30.0
176
     1
 62
     7
420
 16777215
176
     1
 90
        2
176
     1
 90
        2
176
     1
 62
     7
176
     1
 62
     7
176
     1
 90
        1
176
     1
 90
        1
176
     1
 40
40.0
176
     1
 90
       11
176
     1
 62
     7
176
     1
 40
1.0
176
     1
 90
        1
176
     1
 90
        6
176
     1
 90
        2
176
     1
 62
     7
176
     1
 90
        6
176
     1
 90
        0
176
     1
 90
        0
176
     1
290
     0
176
     1
 90
        1
176
     1
 40
0.0
176
     1
 90
        0
176
     1
290
     0
176
     1
290
     1
176
     1
290
     1
176
     1
290
     0
176
     1
290
     0
176
     1
290
     0
176
     1
290
     0
176
     1
290
     0
176
     1
290
     0
176
     1
 90
       50
176
     1
 40
0.0
176
     1
 40
1.0
176
     1
 90
        0
176
     1
 62
    18
420
        0
176
     1
 90
       50
176
     1
 90
        3
176
     1
 62
     5
420
      255
176
     1
290
     0
176
     1
 90
       50
176
     1
 90
       50
176
     1
 90
       50
176
     1
290
     0
176
     1
 90
       50
176
     1
 62
   256
176
     0
 40
1.0
176
     0
 90
        2
176
     1
  1
strokes_ogs.tif
176
     1
290
     0
176
     1
 40
1.0
176
     1
 40
1.0
176
     1
1001
ACAD
1000
AcDbSavedByObjectVersion
1070
     0
  0
VISUALSTYLE
  5
36
102
{ACAD_REACTORS
330
29
102
}
330
29
100
AcDbVisualStyle
  2
Thicken
 70
    13
177
     3
291
     1
 70
    58
 90
        2
176
     1
 90
        2
176
     1
 90
        0
176
     1
 90
        0
176
     1
 40
0.6
176
     1
 40
30.0
176
     1
 62
     7
420
 16777215
176
     1
 90
        1
176
     1
 90
        4
176
     1
 62
     7
176
     1
 62
   257
176
     1
 90
        1
176
     1
 90
        1
176
     1
 40
1.0
176
     1
 90
       12
176
     1
 62
     7
176
     1
 40
1.0
176
     1
 90
        1
176
     1
 90
        6
176
     1
 90
        2
176
     1
 62
     7
176
     1
 90
        5
176
     1
 90
        0
176
     1
 90
        0
176
     1
290
     0
176
     1
 90
        1
176
     1
 40
0.0
176
     1
 90
        0
176
     1
290
     0
176
     1
290
     1
176
     1
290
     1
176
     1
290
     0
176
     1
290
     0
176
     1
290
     0
176
     1
290
     0
176
     1
290
     0
176
     1
290
     0
176
     1
 90
       50
176
     1
 40
0.0
176
     1
 40
1.0
176
     1
 90
        0
176
     1
 62
    18
420
        0
176
     1
 90
       50
176
     1
 90
        3
176
     1
 62
     5
420
      255
176
     1
290
     0
176
     1
 90
       50
176
     1
 90
       50
176
     1
 90
       50
176
     1
290
     0
176
     1
 90
       50
176
     1
 62
   256
176
     0
 40
1.0
176
     0
 90
        2
176
     1
  1
strokes_ogs.tif
176
     1
290
     0
176
     1
 40
1.0
176
     1
 40
1.0
176
     1
1001
ACAD
1000
AcDbSavedByObjectVersion
1070
     0
  0
VISUALSTYLE
  5
30
102
{ACAD_REACTORS
330
29
102
}
330
29
100
AcDbVisualStyle
  2
Wireframe
 70
     5
177
     3
291
     0
 70
    58
 90
        0
176
     1
 90
        2
176
     1
 90
        0
176
     1
 90
        0
176
     1
 40
0.6
176
     1
 40
30.0
176
     1
 62
     7
420
 16777215
176
     1
 90
        1
176
     1
 90
        4
176
     1
 62
     7
176
     1
 62
   257
176
     1
 90
        1
176
     1
 90
        1
176
     1
 40
1.0
176
     1
 90
        0
176
     1
 62
   257
176
     1
 40
1.0
176
     1
 90
        1
176
     1
 90
        6
176
     1
 90
        2
176
     1
 62
     7
176
     1
 90
        3
176
     1
 90
        0
176
     1
 90
        0
176
     1
290
     0
176
     1
 90
        1
176
     1
 40
0.0
176
     1
 90
        0
176
     1
290
     0
176
     1
290
     1
176
     1
290
     1
176
     1
290
     0
176
     1
290
     0
176
     1
290
     0
176
     1
290
     0
176
     1
290
     0
176
     1
290
     0
176
     1
 90
       50
176
     1
 40
0.0
176
     1
 40
1.0
176
     1
 90
        0
176
     1
 62
    18
420
        0
176
     1
 90
       50
176
     1
 90
        3
176
     1
 62
     5
420
      255
176
     1
290
     0
176
     1
 90
       50
176
     1
 90
       50
176
     1
 90
       50
176
     1
290
     0
176
     1
 90
       50
176
     1
 62
   256
176
     0
 40
1.0
176
     0
 90
        2
176
     1
  1
strokes_ogs.tif
176
     1
290
     0
176
     1
 40
1.0
176
     1
 40
1.0
176
     1
1001
ACAD
1000
AcDbSavedByObjectVersion
1070
     0
  0
VISUALSTYLE
  5
3C
102
{ACAD_REACTORS
330
29
102
}
330
29
100
AcDbVisualStyle
  2
X-Ray
 70
    25
177
     3
291
     0
 70
    58
 90
        2
176
     1
 90
        2
176
     1
 90
        1
176
     1
 90
        1
176
     1
 40
0.5
176
     1
 40
30.0
176
     1
 62
     7
420
 16777215
176
     1
 90
        1
176
     1
 90
        0
176
     1
 62
     7
176
     1
 62
   257
176
     1
 90
        1
176
     1
 90
        1
176
     1
 40
1.0
176
     1
 90
        8
176
     1
 62
     7
176
     1
 40
1.0
176
     1
 90
        1
176
     1
 90
        6
176
     1
 90
        2
176
     1
 62
     7
176
     1
 90
        3
176
     1
 90
        0
176
     1
 90
        0
176
     1
290
     0
176
     1
 90
       13
176
     1
 40
0.0
176
     1
 90
        0
176
     1
290
     0
176
     1
290
     1
176
     1
290
     1
176
     1
290
     0
176
     1
290
     0
176
     1
290
     0
176
     1
290
     0
176
     1
290
     0
176
     1
290
     0
176
     1
 90
       50
176
     1
 40
0.0
176
     1
 40
1.0
176
     1
 90
        0
176
     1
 62
    18
420
        0
176
     1
 90
       50
176
     1
 90
        3
176
     1
 62
     5
420
      255
176
     1
290
     0
176
     1
 90
       50
176
     1
 90
       50
176
     1
 90
       50
176
     1
290
     0
176
     1
 90
       50
176
     1
 62
   256
176
     0
 40
1.0
176
     0
 90
        2
176
     1
  1
strokes_ogs.tif
176
     1
290
     0
176
     1
 40
1.0
176
     1
 40
1.0
176
     1
1001
ACAD
1000
AcDbSavedByObjectVersion
1070
     0
  0
DICTIONARYVAR
  5
3BC
102
{ACAD_REACTORS
330
3B7
102
}
330
3B7
100
DictionaryVariables
280
     0
  1
0
  0
DICTIONARYVAR
  5
3BD
102
{ACAD_REACTORS
330
3B7
102
}
330
3B7
100
DictionaryVariables
280
     0
  1
1:1
  0
DICTIONARYVAR
  5
3B9
102
{ACAD_REACTORS
330
3B7
102
}
330
3B7
100
DictionaryVariables
280
     0
  1
STANDARD
  0
DICTIONARYVAR
  5
3B8
102
{ACAD_REACTORS
330
3B7
102
}
330
3B7
100
DictionaryVariables
280
     0
  1
STANDARD
  0
DICTIONARYVAR
  5
3BA
102
{ACAD_REACTORS
330
3B7
102
}
330
3B7
100
DictionaryVariables
280
     0
  1
Imperial24
  0
DICTIONARYVAR
  5
3BB
102
{ACAD_REACTORS
330
3B7
102
}
330
3B7
100
DictionaryVariables
280
     0
  1
Imperial24
  0
DICTIONARY
  5
3C3
330
6B
100
AcDbDictionary
280
     1
281
     1
  3
ACAD_XREC_ROUNDTRIP
360
3C4
  0
DICTIONARY
  5
1A
330
19
100
AcDbDictionary
280
     1
281
     1
  3
BUMPTILE
360
1C
  3
DIFFUSETILE
360
1B
  3
OPACITYTILE
360
1F
  3
REFLECTIONTILE
360
1E
  3
REFRACTIONTILE
360
20
  3
SPECULARTILE
360
1D
  0
DICTIONARY
  5
12
330
11
100
AcDbDictionary
280
     1
281
     1
  3
BUMPTILE
360
14
  3
DIFFUSETILE
360
13
  3
OPACITYTILE
360
17
  3
REFLECTIONTILE
360
16
  3
REFRACTIONTILE
360
18
  3
SPECULARTILE
360
15
  0
DICTIONARY
  5
22
330
21
100
AcDbDictionary
280
     1
281
     1
  3
BUMPTILE
360
24
  3
DIFFUSETILE
360
23
  3
OPACITYTILE
360
27
  3
REFLECTIONTILE
360
26
  3
REFRACTIONTILE
360
28
  3
SPECULARTILE
360
25
  0
DICTIONARY
  5
3C1
330
69
100
AcDbDictionary
280
     1
281
     1
  3
ACAD_XREC_ROUNDTRIP
360
3C2
  0
DICTIONARY
  5
3BE
330
65
100
AcDbDictionary
280
     1
281
     1
  3
ACAD_ROUNDTRIP_2008_TABLESTYLE_CELLSTYLEMAP
360
3BF
  0
XRECORD
  5
3C4
102
{ACAD_REACTORS
330
3C3
102
}
330
3C3
100
AcDbXrecord
280
     1
102
DISPLAYNAME
  1
Imperial24
102
FLAGS
 90
        0
  0
XRECORD
  5
1C
102
{ACAD_REACTORS
330
1A
102
}
330
1A
100
AcDbXrecord
280
     1
270
     1
271
     1
  0
XRECORD
  5
1B
102
{ACAD_REACTORS
330
1A
102
}
330
1A
100
AcDbXrecord
280
     1
270
     1
271
     1
  0
XRECORD
  5
1F
102
{ACAD_REACTORS
330
1A
102
}
330
1A
100
AcDbXrecord
280
     1
270
     1
271
     1
  0
XRECORD
  5
1E
102
{ACAD_REACTORS
330
1A
102
}
330
1A
100
AcDbXrecord
280
     1
270
     1
271
     1
  0
XRECORD
  5
20
102
{ACAD_REACTORS
330
1A
102
}
330
1A
100
AcDbXrecord
280
     1
270
     1
271
     1
  0
XRECORD
  5
1D
102
{ACAD_REACTORS
330
1A
102
}
330
1A
100
AcDbXrecord
280
     1
270
     1
271
     1
  0
XRECORD
  5
14
102
{ACAD_REACTORS
330
12
102
}
330
12
100
AcDbXrecord
280
     1
270
     1
271
     1
  0
XRECORD
  5
13
102
{ACAD_REACTORS
330
12
102
}
330
12
100
AcDbXrecord
280
     1
270
     1
271
     1
  0
XRECORD
  5
17
102
{ACAD_REACTORS
330
12
102
}
330
12
100
AcDbXrecord
280
     1
270
     1
271
     1
  0
XRECORD
  5
16
102
{ACAD_REACTORS
330
12
102
}
330
12
100
AcDbXrecord
280
     1
270
     1
271
     1
  0
XRECORD
  5
18
102
{ACAD_REACTORS
330
12
102
}
330
12
100
AcDbXrecord
280
     1
270
     1
271
     1
  0
XRECORD
  5
15
102
{ACAD_REACTORS
330
12
102
}
330
12
100
AcDbXrecord
280
     1
270
     1
271
     1
  0
XRECORD
  5
24
102
{ACAD_REACTORS
330
22
102
}
330
22
100
AcDbXrecord
280
     1
270
     1
271
     1
  0
XRECORD
  5
23
102
{ACAD_REACTORS
330
22
102
}
330
22
100
AcDbXrecord
280
     1
270
     1
271
     1
  0
XRECORD
  5
27
102
{ACAD_REACTORS
330
22
102
}
330
22
100
AcDbXrecord
280
     1
270
     1
271
     1
  0
XRECORD
  5
26
102
{ACAD_REACTORS
330
22
102
}
330
22
100
AcDbXrecord
280
     1
270
     1
271
     1
  0
XRECORD
  5
28
102
{ACAD_REACTORS
330
22
102
}
330
22
100
AcDbXrecord
280
     1
270
     1
271
     1
  0
XRECORD
  5
25
102
{ACAD_REACTORS
330
22
102
}
330
22
100
AcDbXrecord
280
     1
270
     1
271
     1
  0
XRECORD
  5
3C2
102
{ACAD_REACTORS
330
3C1
102
}
330
3C1
100
AcDbXrecord
280
     1
102
DISPLAYNAME
  1
Imperial24
102
FLAGS
 90
        0
  0
CELLSTYLEMAP
  5
3BF
102
{ACAD_REACTORS
330
3BE
102
}
330
3BE
100
AcDbCellStyleMap
 90
        3
300
CELLSTYLE
  1
TABLEFORMAT_BEGIN
 90
        5
170
     1
 91
        0
 92
    32768
 62
   257
 93
        1
300
CONTENTFORMAT
  1
CONTENTFORMAT_BEGIN
 90
        0
 91
        0
 92
      512
 93
        0
300

 40
0.0
140
1.0
 94
        5
 62
     0
340
55
144
0.25
309
CONTENTFORMAT_END
171
     1
301
MARGIN
  1
CELLMARGIN_BEGIN
 40
1.5
 40
1.5
 40
1.5
 40
1.5
 40
0.18
 40
0.18
309
CELLMARGIN_END
 94
        0
309
TABLEFORMAT_END
  1
CELLSTYLE_BEGIN
 90
        1
 91
        1
300
_TITLE
309
CELLSTYLE_END
300
CELLSTYLE
  1
TABLEFORMAT_BEGIN
 90
        5
170
     1
 91
        0
 92
        0
 62
   257
 93
        1
300
CONTENTFORMAT
  1
CONTENTFORMAT_BEGIN
 90
        0
 91
        0
 92
      512
 93
        0
300

 40
0.0
140
1.0
 94
        5
 62
     0
340
55
144
0.18
309
CONTENTFORMAT_END
171
     1
301
MARGIN
  1
CELLMARGIN_BEGIN
 40
1.5
 40
1.5
 40
1.5
 40
1.5
 40
0.18
 40
0.18
309
CELLMARGIN_END
 94
        0
309
TABLEFORMAT_END
  1
CELLSTYLE_BEGIN
 90
        2
 91
        1
300
_HEADER
309
CELLSTYLE_END
300
CELLSTYLE
  1
TABLEFORMAT_BEGIN
 90
        5
170
     1
 91
        0
 92
        0
 62
   257
 93
        1
300
CONTENTFORMAT
  1
CONTENTFORMAT_BEGIN
 90
        0
 91
        0
 92
      512
 93
        0
300

 40
0.0
140
1.0
 94
        2
 62
     0
340
55
144
0.18
309
CONTENTFORMAT_END
171
     1
301
MARGIN
  1
CELLMARGIN_BEGIN
 40
1.5
 40
1.5
 40
1.5
 40
1.5
 40
0.18
 40
0.18
309
CELLMARGIN_END
 94
        0
309
TABLEFORMAT_END
  1
CELLSTYLE_BEGIN
 90
        3
 91
        2
300
_DATA
309
CELLSTYLE_END
  0
ENDSEC
  0
EOF
